Disturbed

Disturbed
The Game Ver 7 (Guitar tab)

Dropped C# Tuning:
C#-G#-C#-F#-A#-D#

Tempo: 132

Tab key:
P.M.= Palm Mute
h= Hammer On
/^= Bend
= Slide Down


Backround 1 (Joins in the backround after 4 measures of singing.)

|12--12--12--12--12--12--12--12--|13--13--13--13--13--13--13--13--|
|--------------------------------|--------------------------------|
|--------------------------------|--------------------------------|
|--------------------------------|--------------------------------|
|--------------------------------|--------------------------------|
|--------------------------------|--------------------------------|



|12--12--12--12--12--12--12--12--|----------------15--15--15--15--|
|--------------------------------|15--15--15--15------------------|
|--------------------------------|--------------------------------|
|--------------------------------|--------------------------------|
|--------------------------------|--------------------------------|
|--------------------------------|--------------------------------|



Main Riff
P.M. P.M. P.M. P.M.--| P.M.--|
|--------------------------------|--------------------------------|
|--------------------------------|--------------------------------|
|--------------------------------|--------------------------------|
|2-----------2-----------3-------|----0h2---------------------3---|
|2-------2-2-2-------2-2-3-------|2-2-----2-2-2-2-----2-2-2-2-3---|
|2-------2-2-2-------2-2-3-------|2-2-----2-2-2-2-0h2-2-2-2-2-3---|


P.M. P.M. P.M. P.M.--| P.M
|--------------------------------|--------------------------------|
|--------------------------------|--------------------------------|
|--------------------------------|------------------------3-------|
|2-----------2-----------3-------|----0h2-----------------3-------|
|2-------2-2-2-------2-2-3-------|2-2-----2-2-2-2-----2-2-1-------|
|2-------2-2-2-------2-2-3-------|2-2-----2-2-2-2-0h2-2-2-3-------|



Verse Riff

|--------------------------------|--------------------------------|
|--------------------------------|--------------------------------|
|4-------------------------------(4)------------------------------|
|2-------------------------------(2)------------------------------|
|2-------------------------------(2)------------------------------|
|2-------------------------------(2)------------------------------|



|--------------------------------|--------------------------------|
|--------------------------------|--------------------------------|
(4)------------------------------(4)------------------------------|
(2)------------------------------(2)------------------------------|
(2)------------------------------(2)------------------------------|
(2)------------------------------(2)------------------------------|



Bridge Riff

|--------------------------------|
|--------------------------------|
|--------------------------------|
|2-2-2-------2-----2-----2-2-2---|
|2-2-2-------2-----2-----2-2-2---|
|2-2-2-------2-----2-----2-2-2---|



Fill 1
P.M. P.M.
|--------------------------------|--------------------0--------tied on
|--------------------------------|--------------------5--------tied on
|--------------------------------|--------------------4--------tied on
|2-----------2-----------3-------(3)------------------------------|
|2-------2-2-2-------2-2-3-------(3)------------------------------|
|2-------2-2-2-------2-2-3-------(3)------------------------------|



Interlude Riff (Tricky to go from 2 to 15.)
|--------12----------------------|--------12----------------------|
|--------15/^full+half-----------|--------15/^full+half---5/^half-|
|--------------------------------|--------------------------------|
|----------------X-2-2-3---0-3---|--------------------2-----------|
|----------------X-2-2-3---0-3---|--------------------2-----------|
|2---------------X-2-2-3---0-3---|2-------------------2-----------|



Backround 2

|--------------------------------|22/^full^^^^release\----------|
|------------------------17------|--------------------------------|
|--------------------------------|--------------------------------|
|--------------------------------|--------------------------------|
|--------------------------------|--------------------------------|
|--------------------------------|--------------------------------|



End Riff
P.M.------------| P.M.------------------------|
|--------------------------------|--------------------------------|
|--------------------------------|--------------------------------|
|--------------------------------|--------------------------------|
|2-2-2---------------------------|--------------------------------|
|2-2-2-------2-------2-------2---|2-2-2-------2-------2-------2---|
|2-2-2-------2-------2-------2---|2-2-2-------2-------2-------2---|


P.M.------------| P.M.------------------------|
|--------------------------------|--------------------------------|
|--------------------------------|--------------------------------|
|--------------------------------|--------------------------------|
|2-2-2---------------------------|--------------------------------|
|2-2-2-------2-------2-------2---|2-2-2-------2-------2-------2---|
|2-2-2-------2-------2-------2---|2-2-2-------2-------2-------2---|



|--------------------------------|--------------------------------|
|--------------------------------|--------------------------------|
|--------------------------------|--------------------------------|
|2-2-2-------2-------2-------2---|2-2-2-------2-------2-------2---|
|2-2-2-------2-------2-------2---|2-2-2-------2-------2-------2---|
|2-2-2-------2-------2-------2---|2-2-2-------2-------2-------2---|



|--------------------------------|--------------------------------|
|--------------------------------|--------------------------------|
|--------------------------------|--------------------------------|
|2-2-2-------2-------2-------2---|2-2-2-------2-------2-------2---|
|2-2-2-------2-------2-------2---|2-2-2-------2-------2-------2---|
|2-2-2-------2-------2-------2---|2-2-2-------2-------2-------2---|



|--------------------------------|
|--------------------------------|
|--------------------------------|
|2-2-2---------------------------|
|2-2-2---------------------------|
|2-2-2---------------------------|

OptimusPrime

Toegevoegd door OptimusPrime op do 14 aug, 2003 4:39 pm

Auteur: ?
Componist: ?
Uitgever: ?
Taal: Engels

Reacties

CommonCrawl [Bot]

Volg Muzikum