Disturbed

Disturbed
The Game Ver 4 (Guitar tab)

Tuned 1/2 step drop C#
Intro is kind of hard to follow because of all the
synthesizer but is relatively close

------------------------------------------------------------------------------
------------------------------------------------------------------------------
----------5--------------------------------5----------------------------------
---------------------------------------------------------3--------------------
--2--2--3-3--2--0h2h3---3---------2--2--3--3-2---0h2h3---3--------------------
--2--2--3----2----------3---------2--2--3----2-----------3--------------------
Main Guitar Riff

------------------------------------------------------------------------------
------------------------------------------------------------------------------
---------5---------------------------5----------------------------------------
---------------------3-3------------------------------------------------------
-2--2--3-3--2--0h2h3-3-3-----2--2--3-3--0h2h3-0h2h3--3------------------------
-2--2--3----2--------3-3-----2--2--3-----------------3------------------------
Played with variations and ad lib

------------------------------------------------------------------------------
------------------------------------------------------------------------------
------------------------------------------------------------------------------
-2----------------------------------------------------------------------------
-2----------------------------------------------------------------------------
-2----------------------------------------------------------------------------
Let this ring out in beginnning of the verse

------------------------------------------------------------------------------
------------------------------------------------------------------------------
------------------------------------------------------------------------------
------------------------------------------------------------------------------
-2--2--2--2--2----2--2--2--2--2---2--2--2----2-2-2-2-2-2----------------------
-2--2--2--2--2----2--2--2--2--2---2--2--2----2-2-2-2-2-2----------------------
Chorus...listen for exact rythm these are the only chords played though

----------------------|-|-----------------------------------------------------
----------------------|-|-----------------------------------------------------
----------------------|-|-----------------------------------------------------
----------------------|-|-----------------------------------------------------
----------------------|-|---2--2--2--3------------2---------------------------
----------------------|-|---2--2--2--3------------2---------------------------
Fill after chorus slightly palm muted

------------------------------------------------------------------|-|---------
------17------------17-----------------17-----------17------------|-|---------
-----------------------------4b6----------------------------------|-|---------
-2----------------------2----------2--------------------7vvvvvv---|-|---------
-2--------3-3--2--------2----------2-------3-3--2-----------------|-|---------
-2--------3-3--2--------2----------2-------3-3--2-----------------|-|---------
Bridge

-------------------------------------|-|--------------------------------------
-------------------------------------|-|---17vvvvvv---------------------------
-------------------------------------|-|--------------------------------------
-2--------3-3--2------2------3-3--2--|-|--------------------------------------
-2--------3-3--2------2------3-3--2--|-|--------------------------------------
-2--------3-3--2------2------3-3--2--|-|--------------------------------------
Second half played repeatedly Fills in last chorus

------------------------------------------------------------------------------
------------------------------------------------------------------------------
------------------------------------------------------------------------------
------------------------------------------------------------------------------
--------2-2-2-2-2-2-2-2-2-2-2---2---------------------------------------------
--------2-2-2-2-2-2-2-2-2-2-2---2---------------------------------------------
Outro. PM................... gradually release PM

OptimusPrime

Toegevoegd door OptimusPrime op do 14 aug, 2003 4:39 pm

Auteur: ?
Componist: ?
Uitgever: ?
Taal: Engels

Reacties

CommonCrawl [Bot]

Volg Muzikum