Disturbed

Disturbed
Stone Cold Steve Austin's Theme Song (Guitar tab)

BITCHIN' TABS

URL: www.angelfire.com/goth/btab/
EMAIL: btabmaster@hotmail.com

THIS IS AN EXCLUSIVE TAB TO "BITCHIN' TABS"

----------------------------------------------------------------------------------------------

SONG: "Stone Cold" Steve Austin's Theme
BAND: Disturbed
ALBUM: ???
TRANSCRIBED BY: Chris Frazier (btabmaster@hotmail.com)
DATE: 07-20-2K1

----------------------------------------------------------------------------------------------

TUNING: Drop D and down 1/2 step (Db Ab Db Gb Bb Eb)

Riff 1:
Eb|------------------------------------|
Bb|------------------------------------|
Gb|--------------11b----------------8b-| b=bend
Db|-0-0-0-1--0-0-------0-0-0-1--0-0----|
Ab|-0-0-0-1--0-0-------0-0-0-1--0-0----|
Db|-0-0-0-1--0-0-------0-0-0-1--0-0----|

Riff 2: (w/ wah)
Eb|--------------|
Bb|--------------|
Gb|-12-12--13\12-| x=mute tremlo pick these notes
Db|-x--x---x-\x--| \=slide
Ab|-10-10--11\10-|
Db|--------------|

Riff 3:
Eb|------------------------------|
Bb|------------------------------|
Gb|------------------------------| p=pull off
Db|-1p0-0--1p0-0--1p0-0--1p0-1p0-|
Ab|-1p0-0--1p0-0--1p0-0--1p0-1p0-|
Db|-1p0-0--1p0-0--1p0-0--1p0-1p0-|

Riff 4:
Eb|----------------|
Bb|----------------|
Gb|----------------|
Db|-0-0-0-1--1--3--|
Ab|-0-0-0-1--1--3--|
Db|-0-0-0-1--1--3--|

Riff 5:
Eb|---------|
Bb|---------|
Gb|---------|
Db|-0-0-0-1-|
Ab|-0-0-0-1-|
Db|-0-0-0-1-|

OptimusPrime

Toegevoegd door OptimusPrime op do 14 aug, 2003 4:39 pm

Auteur: ?
Componist: ?
Uitgever: ?
Taal: Engels

Reacties

CommonCrawl [Bot]

Volg Muzikum