Disturbed

Disturbed
Shout 2000 Ver 4 (Guitar tab)

Disturbed-shout 2000
Album:the sickness Ryan Phillips :D u_freak66@hotmail.com email me




Intro:
e|------------------------------------------------|
b|------------------------------------------------|
g|------------------------------------------------|
d|-7----------------------------------------------|
a|-7------7--7---7--7--7-----7--7-----7--7----7--7|
e|-7------7--7---7--7--7-----7--7-----7--7----7--7|
PM . . . . . . . . . . .
Verse:
e|----------------------------------------------------------------------------------------------|
b|----------------------------------------------------------------------------------------------|
g|----------------------------------------------------------------------------------------------|
d|-5------4--------7-----4-----5----4--------0--0--0--0---------0--0--0--0--------0--------x--x-|
a|-3------3--------3-----3-----3----3--------0--0--0--0---------0--0--0--0--------0--------x--x-|
e|-------------------------------------------0--0--0--0---------0--0--0--0--------0--------x--x-|


Bridge: 'would you nev-er shout.' 'Huh'\\\\\\-same lyrics-\\\\
e|---------------------------| |-------------------------17-17-17-17-| |---------------------------------|
b|---------------------------| |--10---------------------------------| |--5------------------------------|
g|---------------------------| |--12}bend up whole step--------------| |--7}bend up whole step-2--2--2--2|
d|---------------------------| |-------------------------------------| |---------------------------------|
a|-0------3---0--0-------3---| |-------------------------------------| |---------------------------------|
e|----5-------------5--------| |----listen closely for this part-----| |---------------------------------|

Chorus:
e--------------------------------------------------- \---------------------------------------------------------
b--------------------------------------------------- \--------------------------------------------------------
g--------------------------------------------------- \-------------------------------------------------------
d--7------------------7----5---7-----5---7-----5---7 \----3-----------------------3-----5---7-----5---7----5
a--7------------------7----5---7-----5---7-----5---7 \---3-----------------------3-----5---7-----5---7----5
e--7----7---7--7--7---7----5---7-----5---7-----5---7 x2 \--3----3---3---3---3------3-----5---7-----5---7----5 x2
nh
|---------------------------------------------- |------------------------|------------------------------|
|---------------------------------------------- |------------------------|------------------------------|
|---------------------------------------------- |------------------------|---------------------------[5]|
|--0----------------0-----5---7-----5---7------5 |--7--5--10--7----5----10|--7--5--10--7----5----10------|
|--0----------------0-----5---7-----5---7------5 |--7--5--10--7----5----10|--7--5--10--7----5----10------|

OptimusPrime

Toegevoegd door OptimusPrime op do 14 aug, 2003 4:39 pm

Auteur: ?
Componist: ?
Uitgever: ?
Taal: Engels

Reacties

CommonCrawl [Bot]

Volg Muzikum