Disturbed

Disturbed
Shout 2000 Ver 3 (Guitar tab)

Song: "Shout 2000"
Artist: Disturbed
Album: The Sickness
Transcribed By: Bryan Bramlett (bryanmb87@aol.com)

Tuning: 1/2 Step Down, Drop D

CHORUS:
|--------------------------------------------------------------|
|--------------------------------------------------------------|
|--------------------------------------------------------------|
|-7--------------7--------------3--------------3---------------|
|-7-7777-77-77-777-7777-77-77-773-3333-33-33-333-3333-33-33-33-|
|-7-7777-77-77-777-7777-77-77-773-3333-33-33-333-3333-33-33-33-|
PM .... .. .. .. .... .. .. .. .... .. .. .. .... .. .. ..

|--------------------------------------------------------------|
|--------------------------------------------------------------|
|--------------------------------------------------------------|
|-------------------------------7--------------7---------------|
|-00-00-00-00-000-00-00-00-00-007-7777-77-77-777-7777-77-77-77-|
|-00-00-00-00-000-00-00-00-00-007-7777-77-77-777-7777-77-77-77-|
PM.. .. .. .. ... .. .. .. .. .. .... .. .. .. .... .. .. ..

VERSE:
|---------------------------------------|
|---------------------------------------|
|---------------------------------------|
|---------------------------------------|
|-10--9--12--9-0000-0000-0XX0000-0000-0-|
|-10hold-------0000-0000-0XX0000-0000-0-|

INTERLUDE:
|------------------|
|------------------|
|------------------|
|------------------|
|-7-5-/10-7--5-/10-|
|-7-5-/10-7--5-/10-|

SOLO:
|----------------------------20-------17---15---17--17-|
|-17-20----17----------20-17----20--17---17---17--17---|
|-------19----17-19-17---------------------------------|
|------------------------------------------------------|
|------------------------------------------------------|
|------------------------------------------------------|

SOLO BACKGROUND:
|-------|
|-------|
|-------|
|-7---7-|
|-7---7-|
|-7---7-|

BRIDGE:
|---------5\--------------------------------------------|
|------------------------------------5------------------|
|--------------------------------------2----------------|
|-2p0-2--------0-0--0h2------2p0-2--------0-0--0h2------|
|-------0-----3----3---3-0-3-------0-----3----3---3-0-3-|
|-------------------------------------------------------|

CHORUS 2:
|--------------------------------------------------------------------|
|--------------------------------------------------------------------|
|--------------------------------------------------------------------|
|-7------5-7-5-7-5-7------5-7-5-7-5-3------5-7-5-7-5-3------5-7-5-7-5|
|-7-7777-5-7-5-7-5-7-7777-5-7-5-7-5-3-3333-5-7-5-7-5-3-3333-5-7-5-7-5|
|-7-7777-5-7-5-7-5-7-7777-5-7-5-7-5-3-3333-5-7-5-7-5-3-3333-5-7-5-7-5|
PM .... .... .... ....

|--------------------------------------------------------------------|
|--------------------------------------------------------------------|
|--------------------------------------------------------------------|
|-0------5-7-5-7-5-0------5-7-5-7-5-7------5-7-5-7-5-7------5-7-5-7-5|
|-0-0000-5-7-5-7-5-0-0000-5-7-5-7-5-7-7777-5-7-5-7-5-7-7777-5-7-5-7-5|
|-0-0000-5-7-5-7-5-0-0000-5-7-5-7-5-7-7777-5-7-5-7-5-7-7777-5-7-5-7-5|
PM .... .... .... ....

OptimusPrime

Toegevoegd door OptimusPrime op do 14 aug, 2003 4:39 pm

Auteur: ?
Componist: ?
Uitgever: ?
Taal: Engels

Reacties

CommonCrawl [Bot]

Volg Muzikum