Disturbed

Disturbed
Rise Ver 3 (Guitar tab)

Disturbed - Rise
================
>
Tuning: Drop D + down 1/2 step
(Db Ab Db Gb Bb Eb)
>
Intro/Main:
|------------------------------------------------------------|
|------------------------------------------------------------|
|------------------------------------------------------------|
|------------------------------------------------------------|
|----------------------------------- repeat 3x --------------|
|-10h12-0-12p0-12p0-12-12-10h12-10---------------------------|
>
|------------------------------------------------------------|
|------------------------------------------------------------|
|------------------------------------------------------------|
|------------------------------------------------------------|
|------------------------------------------------------------|
|-6-6-6-6-6-6-15-15-15-10-10-10------------------------------|
>
|------------------------------------------------------------|
|------------------------------------------------------------|
|------------------------------------------------------------|
|-10/12---12p0-12p0-12-12-10/12-10---------------------------|
|-x--x----x----x----x--x------------ repeat 3x --------------|
|-10/12-0-12p0-12p0-12-12-10/12-10---------------------------|
>
|------------------------------------------------------------|
|------------------------------------------------------------|
|------------------------------------------------------------|
|-6-6-6-6-6-6-15-15-15-10-10-10------------------------------|
|-x-x-x-x-x-x-x--x--x--x--x--x-------------------------------|
|-6-6-6-6-6-6-15-15-15-10-10-10------------------------------|
>
Verse:
|------------------------------------------------------------|
|------------------------------------------------------------|
|------------------------------------------------------------|
|-10h12---12---12---12-12-10h12-10---------------------------|
|-10h12---12---12---12-12-10h12-10-- repeat 3x --------------|
|-10h12---12---12---12-12-10h12-10---------------------------|
>
|------------------------------------------------------------|
|------------------------------------------------------------|
|------------------------------------------------------------|
|-6-6-6-6-6-6-15-15-15-10-10-10------------------------------|
|-6-6-6-6-6-6-15-15-15-10-10-10------------------------------|
|-6-6-6-6-6-6-15-15-15-10-10-10------------------------------|
>
Pre-Chorus: (palm muted)
|------------------------------------------------------------|
|------------------------------------------------------------|
|------------------------------------------------------------|
|-0-0-0-0---0-0-0-- repeat 4x -------------------------------|
|-0-0-0-0---0-0-0--------------------------------------------|
|-0-0-0-0---0-0-0--------------------------------------------|
>
Chorus Part A:
|------------------------------------------------------------|
|------------------------------------------------------------|
|--7-7---10---10---10---10-10-7-7----------------------7-7---|
|--7-7---10---10---10---10-10-0-0---3----3----3----1---7-7---|
|--5-5---8----8----8----8--8--0-0---3----3----3----1---5-5---|
|-----------------------------0-0---3----3----3----1---0-0---|
>
|------------------------------------------------------------|
|------------------------------------------------------------|
|--10---10---10---10-10-9-9--------------9\7-----------------|
|--10---10---10---10-10-7-7--------7-7-7-7\5-----------------|
|--8----8----8----8--8--7-7--7-7-7-7-7-7-7\5-----------------|
|-----------------------7-7--7-7-7-7-7-7-7\5-----------------|
> palm mute ----> * * * * * *
|------------------------------------------------------------|
|------------------------------------------------------------|
|--7-7---10---10---10---10-10-7-7----------------------7-7---|
|--7-7---10---10---10---10-10-0-0---3----3----3----1---7-7---|
|--5-5---8----8----8----8--8--0-0---3----3----3----1---5-5---|
|-----------------------------0-0---3----3----3----1---0-0---|
>
|------------------------------------------------------------|
|------------------------------------------------------------|
|--10---10---10---10-10-9-9----------------------------------|
|--10---10---10---10-10-7-7--------7-7-7-7/10----------------|
|--8----8----8----8--8--7-7--7-7-7-7-7-7-7/10----------------|
|-----------------------7-7--7-7-7-7-7-7-7/10----------------|
> palm mute ----> * * * * * *
>
Chorus Part B: (quieter part)
|------------------------------------------------------------|
|------------------------------------------------------------|
|------------------------------------------------------------|
|---------------------------10--------------------------0----|
|--12--10-12-10---12--10-12-----12--10-12-10--12--10-12------|
|--8--------------0-------------8------------ 0--------------|
>
|------------------------------------------------------------|
|------------------------------------------------------------|
|------------------------------------------------------------|
|---------------------------10--3-3-3-3-3-3-8-8-8-8-8-8-8-8--|
|--12--10-12-10---12--10-12-----3-3-3-3-3-3-8-8-8-8-8-8-8-8--|
|--8--------------0-------------3-3-3-3-3-3-8-8-8-8-8-8-8-8--|
> palm mute ----> * * * * * * * * * * * * * *
>
Break: (palm muted til after the slide)
|------------------------------------------------------------|
|------------------------------------------------------------|
|------------------------------------------------------------|
|--0-0--3-1-0-0--1-3-0-0--3-1-0-1-0-1-0-3-- repeat 3x -------|
|--0-0--3-1-0-0--1-3-0-0--3-1-0-1-0-1-0-3--------------------|
|--0-0--3-1-0-0--1-3-0-0--3-1-0-1-0-1-0-3--------------------|
>
|------------------------------------------------------------|
|------------------------------------------------------------|
|------------------------------------------------------------|
|--0-0--3-1-0-0--1-3-0-0--3-1-0-1-0-12\----------------------|
|--0-0--3-1-0-0--1-3-0-0--3-1-0-1-0-12\----------------------|
|--0-0--3-1-0-0--1-3-0-0--3-1-0-1-0-12\----------------------|
>
|------------------------------------------------------------|
|------------------------------------------------------------|
|------------------------------------------------------------|
|------------------------------------------ repeat 4x -------|
|------------------------------------------------------------|
|--0-0--3-1-0-0--1-3-0-0--3-1-0-1-0-1-0-3--------------------|
>
|------------------------------------------------------------|
|------------------------------------------------------------|
|------------------------------------------------------------|
|--8-8-8-8-8-8-8-8-8-8-8-8-8-8-8-8-8-8-8-8-8-10--------------|
|--8-8-8-8-8-8-8-8-8-8-8-8-8-8-8-8-8-8-8-8-8-10--------------|
|--8-8-8-8-8-8-8-8-8-8-8-8-8-8-8-8-8-8-8-8-8-10--------------|
> * * * * * * * * * * * * * * * * * * * * *
>
> Now you play Chorus Part B with ending variation.
>
Chorus Part B Ending variation:
|------------------------------------------------------------|
|------------------------------------------------------------|
|------------------------------------------------------------|
|------------------------8-8-8-8-8-8-8-8-8-10----------------|
|--3-3-3-3-3-3-3-3-3-3-3-8-8-8-8-8-8-8-8-8-10----------------|
|--3-3-3-3-3-3-3-3-3-3-3-8-8-8-8-8-8-8-8-8-10----------------|
>
|------------------------------------------------------------|
|------------------------------------------------------------|
|------------------------------------------------------------|
|--8-8-8-8-8-8----0-0-0-0-0-0-- delay effect? ---------------|
|--8-8-8-8-8-8----0-0-0-0-0-0--------------------------------|
|--8-8-8-8-8-8----0-0-0-0-0-0---- repeat 3x -----------------|
>
|------------------------------------------------------------|
|------------------------------------------------------------|
|------------------------------------------------------------|
|------------------------8-8-8-8-8-8-8-8-8-8-8-8-------------|
|--3-3-3-3-3-3-3-3-3-3-3-8-8-8-8-8-8-8-8-8-8-8-8-------------|
|--3-3-3-3-3-3-3-3-3-3-3-8-8-8-8-8-8-8-8-8-8-8-8-------------|
>
Ending: intro/main riff, play once with just the bottom note,
then change to power chords till finish.
End:
|------------------------------------------------------------|
|------------------------------------------------------------|
|------------------------------------------------------------|
|---15-15-15-10-10-10-12\------ THE END! --------------------|
|---15-15-15-10-10-10-12\------------------------------------|
|---15-15-15-10-10-10-12\------------------------------------|
>

OptimusPrime

Toegevoegd door OptimusPrime op do 14 aug, 2003 4:39 pm

Auteur: ?
Componist: ?
Uitgever: ?
Taal: Engels

Reacties

CommonCrawl [Bot]

Volg Muzikum