Disturbed

Disturbed
Rise (Guitar tab)

Song: "Rise"
Artist: Disturbed
Album: Believe
Transcribed By: Bryan Bramlett (bryanmb87@aol.com)

Tuning: Drop D, 1/2 Step Down (Db,Ab,Db,Gb,Bb,Eb)

INTRO:
|------------------------------------------------|
|------------------------------------------------|
|------------------------------------------------|
|------------------------------------------------|
|-3h5---5---5---55-3h5-3--3h5---5---5---55-3h5-3-|
|-----0---0---0---------------0---0---0----------|

|------------------------------------------|
|------------------------------------------|
|------------------------------------------|
|-------------------------------101010-555-|
|-3h5---5---5---55-3h5-3-666666--8-8-8-333-|
|-----0---0---0----------666666------------|

VERSE:
|------------------------------------| |----------------------|
|------------------------------------|play|----------------------|
|------------------------------------| 3X |----------------------|
|------------------------------------|then|--------101010--------|
|-10h12-12-12-12-12-12-1212-10h12-10-| |-666666--8-8-8-101010-|
|-10h12-12-12-12-12-12-1212-10h12-10-| |-666666--------101010-|
pm .. .. ..

BRIDGE: (palm mute)
|----------------------|
|----------------------|
|----------------------|
|----------------------|
|-0000--000--0000--000-|
|-0000--000--0000--000-|

BRIDGE 2:
|----------------------------------------------------------------|
|----------------------------------------------------------------|
|-7----10-10-10-1010-7--7---10-10-10-10-9-7--7---10-10-10-1010-9-|
|-7-0--10-10-10-1010-7--7-0-10-10-10-10-9-7--7-0-10-10-10-1010-9-|
|-5-0---8--8--8--8-8-5--5-0--8--8--8--8-7-5--5-0--8--8--8--8-8-7-|
|---0---------------------0--------------------0-----------------|

|-----------------|
|-----------------|
|-----------------|
|-------------7-5-|
|-7-7-7-7-7-7-7-5-|
|-7-7-7-7-7-7-7-5-|
pm. . . . . .

|----------------------------------------------------------------|
|----------------------------------------------------------------|
|-7----10-10-10-1010-7--7---10-10-10-10-9-7--7---10-10-10-1010-9-|
|-7-0--10-10-10-1010-7--7-0-10-10-10-10-9-7--7-0-10-10-10-1010-9-|
|-5-0---8--8--8--8-8-5--5-0--8--8--8--8-7-5--5-0--8--8--8--8-8-7-|
|---0---------------------0--------------------0-----------------|

|----------------|
|----------------|
|----------------|
|-------------10-|
|-7-7-7-7-7-7-10-|
|-7-7-7-7-7-7-10-|
pm. . . . . .

CHORUS:
|---------------------------------------------------------|
|---------------------------------------------------------|
|-----------------5-------------------------------------5-|
|-7--5-7-5--7-5-7----7--5-7-5--7-5-7-0--7--5-7-5-7--5-7---|
|-X---------5--------X---------5--------X--------5--------|
|-8------------------8------------------8-----------------|

|---------------------------------------------|
|---------------------------------------------|
|---------------------------------------------|
|---------------------------------------------|
|-3-3-3-3-3-3-3-3-3-3-3-3-8-8-8-8-8-8-8-8-8-8-|
|-3-3-3-3-3-3-3-3-3-3-3-3-8-8-8-8-8-8-8-8-8-8-|
pm. . . . . . . . . . . .

INTERLUDE: (palm mute)
|----------------------------------------|
|----------------------------------------|
|----------------------------------------|
|----------------------------------------|
|-0-0--3-2-0-0--2-3-0-0--3-2-0-2-0-2-0-3-|
|-0-0--3-2-0-0--2-3-0-0--3-2-0-2-0-2-0-3-|

INTERLUDE 2:
|----------------------------------------|
|----------------------------------------|
|----------------------------------------|
|-0-0--3-2-0-0--2-3-0-0--3-2-0-2-0-2-0-3-|
|-0-0--3-2-0-0--2-3-0-0--3-2-0-2-0-2-0-3-|
|-0-0--3-2-0-0--2-3-0-0--3-2-0-2-0-2-0-3-|

INTERLUDE 3: (gradually release palm mute)
|----------------------------------------|
|----------------------------------------|
|----------------------------------------|
|----------------------------------------|
|-8-8-8-8-8-8-8-8-8-8-8-8-8-8-8-8-8-8-10-|
|-8-8-8-8-8-8-8-8-8-8-8-8-8-8-8-8-8-8-10-|
pm. . . . . . . . . . . . . . .

CHORUS 2:
|-----------------------------------------------|
|-----------------------------------------------|
|-----------------------------------------------|
|-----------------------------------------------|
|-8-8-8-8-8-8--8-8-8-8-8-0-0-0-0-0-0--0-0-0-0-0-|
|-8-8-8-8-8-8--8-8-8-8-8-0-0-0-0-0-0--0-0-0-0-0-|

CHORUS 2 END:
|-------------------------------------------------|
|-------------------------------------------------|
|-------------------------------------------------|
|-------------------------------------------------|
|-3-3-3-3-3-3-3-3-3-3-3-3-8-8-8-8-8-8-8-8-8-8-8-8-|
|-3-3-3-3-3-3-3-3-3-3-3-3-8-8-8-8-8-8-8-8-8-8-8-8-|

OUTRO:
|-----|
|-----|
|-----|
|-12\-|
|-12\-|
|-12\-|

OptimusPrime

Toegevoegd door OptimusPrime op do 14 aug, 2003 4:39 pm

Auteur: ?
Componist: ?
Uitgever: ?
Taal: Engels

Reacties

CommonCrawl [Bot]

Volg Muzikum