Disturbed

Disturbed
Rememberfull Ver 3 (Guitar tab)

Disturbed
Written by: Dan Donegan
Tabbed by:Myzery

"Remember"
Tuning:Db,Ab,Db,Gb,Bb,Eb

Legend
. =Palm Mute
^^=full Bend
^=Half Bend
/=Slide
~=Vibrato
p=Pull Off
__/=Wah

Intro:
Eb|---10---|
Bb|--------|
Gb|--------|
Db|--------|
Ab|--------|
Db|9-------|

Intro 2:
Eb|------------------------------------------------------------------------|
Bb|------------------------------------------------------------------------|
Gb|------------------------------------------------------------------------|
Db|------------------------------------------------------------------------|
Ab|0-3-3/8-0-0-3-3/7-0-3-0-3-0-3-3/8-0-0-3-3/7-0-3--3-0-3-3/8-0-0-3-3/7-0-3|
Db|0-3-3/8-0-0-3-3/7-0-3-0-3-0-3-3/8-0-0-3-3/7-0-3--3-0-3-3/8-0-0-3-3/7-0-3|
. . . . . . . . . . . . . . . . . . . . . . . .

Eb|------------------------------------------------------------------------|
Bb|------------------------------------------------------------------------|
Gb|------------------------------------------------------------------------|
Db|------------------------------------------------------------------------|
Ab|0-3-0-3-3/8-0-0-3-3-7-0-0-3-0-0-0-3-3/8-0-0-3-3/7-0-3-0-3-0-3-3/8-0-0-3-|
Db|0-3-0-3-3/8-0-0-3-3-7-0-0-3-0-0-0-3-3/8-0-0-3-3/7-0-3-0-3-0-3-3/8-0-0-3-|
. . . . . . . . . . . . . . . . . . . . . . . . . . .

Eb|------------------------------------------------------------------|
Bb|------------------------------------------------------------------|
Gb|------------------------------------------------------------------|
Db|-----------------------------------------------------------------0|
Ab|3/7-0-3--3-0-3-3/8-0-0-3-3/7-0-3-0-3-0-3-3/8-0-0-3-3-7-0-0-3-0-0-0|
Db|3/7-0-3--3-0-3-3/8-0-0-3-3/7-0-3-0-3-0-3-3/8-0-0-3-3-7-0-0-3-0-0-0|
. . . . . . . . . . . . . . . . . . . . .

1st Verse:
Eb|-------------------------------------------------------------------|
Bb|-------------------------------------------------------------------|
Gb|-------------------------------------------------------------------|
Db|-------------------------------------------------------------------|
Ab|---------13----------12------------------------13----------12------|
Db|0--12-15----0--12-15----0-12-15-0-15--0--12-15----0--12-15----0--12|

Eb|-------------------------------------------------------------------|
Bb|-------------------------------------------------------------------|
Gb|-------------------------------------------------------------------|
Db|----------------------------------------------------10-10-10-------|
Ab|----13---------12------------------------13---------10-10-10-------|
Db|-15----0-12-15----0-12-15-0-15--0--12-15----0-12-15-10-10-10--0--12|

Eb|-------------------------------------------------------------------|
Bb|-------------------------------------------------------------------|
Gb|-------------------------------------------------------------------|
Db|-------------------------------------------------------------------|
Ab|----13---------12------------------------13----------12----------13|
Db|-15----0-12-15----0-12-15-0-15--0--12-15----0--12-15----0--12-15---|

Eb|------------------------------------------------------|
Bb|------------------------------------------------------|
Gb|------------------------------------------------------|
Db|----------------------------------------------10-10-10|
Ab|---------12------------------------13---------10-10-10|
Db|0--12-15----0-12-15-0-15--0--12-15----0-12-15-10-10-10|

Chorus:
Eb|-------------------------------------------------------------------|
Bb|-------------------------------------------------------------------|
Gb|--5-------------5------------5-------------5-----------------------|
Db|/7-7-5-3-3---/7--7-5-3-3---/7-7-5-3-3---/7--7-5-3-3---5-5-3-3---3-5|
Ab|----------5-3-----------5-3----------5-3-----------5-3-------5-3-5-|
Db|-------------------------------------------------------------------|

Eb|--------------------------------------------------------------------|
Bb|--------------------------------------------------------------------|
Gb|---------------5---------------------5/10-101010------101010------10|
Db|-5-3-3-------/7-7-5-3-3---3-3-5-5-7-7-----------101010------101010--|
Ab|------5-3-3-5----------5-3------------------------------------------|
Db|--------------------------------------------------------------------|

Eb|----------------------------------------------------------------------|
Bb|----------------------------------------------------------------------|
Gb|10----101010------101010-------101010-----12-12^^10------------12-12^^|
Db|--10p12------121212------121212------10p12---------12-10--12-10-------|
Ab|----------------------------------------------------------------------|
Db|----------------------------------------------------------------------|
/ Play First Time Only \
Eb|-------------|--------------------------------|
Bb|-------------|--------------------------------|
Gb|10-12--10----|14^^-14~~-7^^-7~~-2^^-2~~-------|
Db|-------------|--------------------------------|
Ab|-------------|-------------------------5^^-5~~|
Db|-------------|--------------------------------|

2nd Verse
Eb|-------------------------------------------------------------------|
Bb|-------------------------------------------------------------------|
Gb|-------------------------------------------------------------------|
Db|-------------------------------------------------------------------|
Ab|---------13----------12------------------------13----------12------|
Db|0--12-15----0--12-15----0-12-15-0-15--0--12-15----0--12-15----0--12|
. .. .. . .. .. . .. .. . .. . .. .. . .. .. . ..

Eb|-------------------------------------------------------------------|
Bb|-------------------------------------------------------------------|
Gb|-------------------------------------------------------------------|
Db|----------------------------------------------------10-10-10-------|
Ab|----13---------12------------------------13---------10-10-10-------|
Db|-15----0-12-15----0-12-15-0-15--0--12-15----0-12-15-10-10-10--0--12|
.. . .. .. . .. .. . .. . .. .. . .. ..

Eb|-------------------------------------------------------------------|
Bb|-------------------------------------------------------------------|
Gb|-------------------------------------------------------------------|
Db|-------------------------------------------------------------------|
Ab|----13---------12------------------------13----------12----------13|
Db|-15----0-12-15----0-12-15-0-15--0--12-15----0--12-15----0--12-15---|

Eb|------------------------------------------------|
Bb|------------------------------------------------|
Gb|------------------------------------------------|
Db|------------------------------------------------|
Ab|---------12------------------------13---------12|
Db|0--12-15----0-12-15-0-15--0--12-15----0-12-15---|

(((REPEAT CHORUS))) then go to Bridge

OptimusPrime

Toegevoegd door OptimusPrime op do 14 aug, 2003 4:39 pm

Auteur: ?
Componist: ?
Uitgever: ?
Taal: Engels

Reacties

CommonCrawl [Bot]

Volg Muzikum