Disturbed

Disturbed
Prayer (whole Song) (Guitar tab)

Song: Prayer
Artist: Disturbed
Album: Believe

Tabbed by: Harold Uy (summoned_leviathan@yahoo.com)

This is my first tab, wish you all like it. Coz I had a hard time getting it.. hehe..

Tuning: drop-d (D A D G B E)
Put distortion through the rest of the song

Intro:
(Repeat this several times) don�t know how many times you play this, just listen to the song.. You�ll get it..)
|-----------------------------------------------------------------------------|
|-----------------------------------------------------------------------------|
|-----------------------------------------------------------------------------|
|-----------------------------------------------------------------------------|
|-11-11-11p12-0�11-11-11p12-0-11-11-11p12-0�11-11-11p12-0-11-11-11p12-0-------|
|-11-11-11p12-0�11-11-11p12-0-11-11-11p12-0�11-11-11p12-0-11-11-11p12-0-------|


This is the part when he starts to sing. Just do the same as the above just put palm mute.
Another dream that will never come true�������
|-----------------------------------------------------------------------------|
|-----------------------------------------------------------------------------|
|-----------------------------------------------------------------------------|
|-----------------------------------------------------------------------------|
|-11-11-11p12-0�11-11-11p12-0-11-11-11p12-0�11-11-11p12-0-11-11-11p12-0-------|
|-11-11-11p12-0�11-11-11p12-0-11-11-11p12-0�11-11-11p12-0-11-11-11p12-0-------|
��������������������..P.M������������������������..P.M������������������������.


Then here comes the coolest part..
����.Let me enlighten you.. This is the way I pray�.
|-----------------------------|-----------------------------------------------|
|-----------------------------|-----------------------------------------------|
|-----------------------------|-----------------------------------------------|
|-6�-6-6�-0-2-0-2/5-7---------|-6�-6-6--0-2-0-2/5-7---------------------------|
|-6�-6-6�-0-2-0-2/5-7---------|-6�-6-6--0-2-0-2/5-7---------------------------|
|-6�-6-6�-0-2-0-2/5-7---------|-6�-6-6�-0-2-0-2/5-7---------------------------|


|-----------------------------|-----------------------------------------------|
|-----------------------------|-----------------------------------------------|
|-----------------------------|-----------------------------------------------|
|-6�-6-6�-0-2-0-2/5-7---------|-6�-6-6�-0-2-0-2/4-0-7-7-7-7-7-7---------------|
|-6�-6-6�-0-2-0-2/5-7---------|-6�-6-6�-0-2-0-2/4-0-7-7-7-7-7-7---------------|
|-6�-6-6�-0-2-0-2/5-7---------|-6�-6-6�-0-2-0-2/4-0-7�7-7-7-7-7---------------|
{___________________ _______________________}
\/
This is the way I pray�.









Chorus: (repeat this 4 times)
|--------------------------|--------------------------------------------------|
|--------------------------|--------------------------------------------------|
|--------------------------|--------------------------------------------------|
|-2-2/4-4/7-7-7-7-7-7-7-7--|-6-6\4-4-7-7-7-7-7-7-7-7--------------------------|
|-2-2/4-4/7-7-7-7-7-7-7-7--|-4-4\2-2-7-7-7-7-7-7-7-7--------------------------|
|-2-2/4-4/7-7-7-7-7-7-7-7--|--------------------------------------------------|
{________ ______________} {________________________ ____________________}
\/ \/
Living just isn�t hard enough.. Burn me alive inside���.
Living my life�s not hard enough�

And at the fourth time through he does the last part like the intro.
Take everything away�.
|-----------------------------------------------------------------------------|
|-----------------------------------------------------------------------------|
|-----------------------------------------------------------------------------|
|-6-6\4-4-7-7-7--0--7-7-7--0--7-7-7--0--7-7-7--0------------------------------|
|-4-4\2-2-7-7-7--0�-7-7-7--0--7-7-7--0--7-7-7--0------------------------------|
|---------7-7-7p00--7-7-7p00--7-7-7p00--7-7-7p00------------------------------|
{_____________ _____________________}
\/
repeat this until he screams.

Again is the intro:
|-----------------------------------------------------------------------------|
|-----------------------------------------------------------------------------|
|-----------------------------------------------------------------------------|
|-----------------------------------------------------------------------------|
|-11-11-11p12-0�11-11-11p12-0-11-11-11p12-0�11-11-11p12-0-11-11-11p12-0-------|
|-11-11-11p12-0�11-11-11p12-0-11-11-11p12-0�11-11-11p12-0-11-11-11p12-0-------|


Then, he starts to sing again.
Another nightmare about to come true will manifest tomorrow���
|-----------------------------------------------------------------------------|
|-----------------------------------------------------------------------------|
|-----------------------------------------------------------------------------|
|-----------------------------------------------------------------------------|
|-11-11-11p12-0�11-11-11p12-0-11-11-11p12-0�11-11-11p12-0-11-11-11p12-0-------|
|-11-11-11p12-0�11-11-11p12-0-11-11-11p12-0�11-11-11p12-0-11-11-11p12-0-------|
��������������������..P.M������������������������..P.M������������������������.



then , goes the coolest part again..
����.Let me enlighten you.. This is the way I pray�.
|-----------------------------|-----------------------------------------------|
|-----------------------------|-----------------------------------------------|
|-----------------------------|-----------------------------------------------|
|-6�-6-6�-0-2-0-2/5-7---------|-6�-6-6--0-2-0-2/5-7---------------------------|
|-6�-6-6�-0-2-0-2/5-7---------|-6�-6-6--0-2-0-2/5-7---------------------------|
|-6�-6-6�-0-2-0-2/5-7---------|-6�-6-6�-0-2-0-2/5-7---------------------------|


|-----------------------------|-----------------------------------------------|
|-----------------------------|-----------------------------------------------|
|-----------------------------|-----------------------------------------------|
|-6�-6-6�-0-2-0-2/5-7---------|-6�-6-6�-0-2-0-2/4-0-7-7-7-7-7-7---------------|
|-6�-6-6�-0-2-0-2/5-7---------|-6�-6-6�-0-2-0-2/4-0-7-7-7-7-7-7---------------|
|-6�-6-6�-0-2-0-2/5-7---------|-6�-6-6�-0-2-0-2/4-0-7�7-7-7-7-7---------------|
{___________________ _______________________}
\/
This is the way I pray�.


Then the chorus again���..
Chorus: (repeat this 4 times)
|--------------------------|--------------------------------------------------|
|--------------------------|--------------------------------------------------|
|--------------------------|--------------------------------------------------|
|-2-2/4-4/7-7-7-7-7-7-7-7--|-6-6\4-4-7-7-7-7-7-7-7-7--------------------------|
|-2-2/4-4/7-7-7-7-7-7-7-7--|-4-4\2-2-7-7-7-7-7-7-7-7--------------------------|
|-2-2/4-4/7-7-7-7-7-7-7-7--|--------------------------------------------------|
{________ ______________} {________________________ ____________________}
\/ \/
Living just isn�t hard enough.. Burn me alive inside���.
Living my life�s not hard enough�

And at the fourth time through he does the last part like the intro.
Take everything away�.
|-----------------------------------------------------------------------------|
|-----------------------------------------------------------------------------|
|-----------------------------------------------------------------------------|
|-6-6\4-4-7-7-7--0--7-7-7--0--7-7-7--0--7-7-7--0------------------------------|
|-4-4\2-2-7-7-7--0�-7-7-7--0--7-7-7--0--7-7-7--0------------------------------|
|---------7-7-7p00--7-7-7p00--7-7-7p00--7-7-7p00------------------------------|
{_____________ _____________________}
\/
Repeat this until he screams.

Then he sustains a chord.
|------------------------|
|------------------------|
|------------------------|
|-------6----------------|
|-------4----------------|
|------------------------|


The next part is the hardest part that I got rid of.
Use the thickest distortion in this part it sound great.

|-----------------------------------------------------------------------------|
|-----------------------------------------------------------------------------|
|-----------------------------------------------------------------------------|
|-----------------------------------------------------------------------------|
|-0h2-0h2--0h2-0h2--0h2-0h2--0h2-0h2-2-2-2-3----------------------------------|
|-0h2-0h2--0h2-0h2--0h2-0h2--0h2-0h2-2-2-2-3----------------------------------|


|-----------------------------------------------------------------------------|
|-----------------------------------------------------------------------------|
|-----------------------------------------------------------------------------|
|-----------------------------------------------------------------------------|
|-0h2-0h2--0h2-0h2--0h2-0h2--0h2-0h2-0-0-0------------------------------------|
|-0h2-0h2--0h2-0h2--0h2-0h2--0h2-0h2-0-0-0------------------------------------|
{_ _}
\/
P.M.






Return to me, return to me, return to me, return to me, leave me no one!
|-----------------------------------------------------------------------------|
|-----------------------------------------------------------------------------|
|-----------------------------------------------------------------------------|
|-----------------------------------------------------------------------------|
|-0h2-0h2--0h2-0h2--0h2-0h2--0h2-0h2-2-2-2-3----------------------------------|
|-0h2-0h2--0h2-0h2--0h2-0h2--0h2-0h2-2-2-2-3----------------------------------|

Return to me, return to me, return to me, return to me, cast aside!
|-----------------------------------------------------------------------------|
|-----------------------------------------------------------------------------|
|-----------------------------------------------------------------------------|
|-----------------------------------------------------------------------------|
|-0h2-0h2--0h2-0h2--0h2-0h2--0h2-0h2-2-2-3------------------------------------|
|-0h2-0h2--0h2-0h2--0h2-0h2--0h2-0h2-2-2-3------------------------------------|

Return to me, return to me, return to me, return to me, leave me no one!
|-----------------------------------------------------------------------------|
|-----------------------------------------------------------------------------|
|-----------------------------------------------------------------------------|
|-----------------------------------------------------------------------------|
|-0h2-0h2--0h2-0h2--0h2-0h2--0h2-0h2-2-2-2-3----------------------------------|
|-0h2-0h2--0h2-0h2--0h2-0h2--0h2-0h2-2-2-2-3----------------------------------|


Return to me, return to me, return to me, return to me, you made me turn away..
|-----------------------------------------------------------------------------|
|-----------------------------------------------------------------------------|
|-----------------------------------------------------------------------------|
|-----------------------------------------------------------------------------|
|-0h2-0h2--0h2-0h2--0h2-0h2--0h2-0h2-2-2--------------------------------------|
|-0h2-0h2--0h2-0h2--0h2-0h2--0h2-0h2-2-2--------------------------------------|


(Then do the chorus again two times)


Then the intro:
Not like the first and second, this part is cut.. cool!!
|-----------------------------------------------------------------------------|
|-----------------------------------------------------------------------------|
|-----------------------------------------------------------------------------|
|-----------------------------------------------------------------------------|
|-11-11-11p12-0�11-11-11p12-0-11-11-11p12-0�11-11-----------------------------|
|-11-11-11p12-0�11-11-11p12-0-11-11-11p12-0�11-11-----------------------------|

well, that�s it hope you all enjoyed it..



If you have any comments or suggestions feel free to email me at summoned_leviathan@yahoo.com

OptimusPrime

Toegevoegd door OptimusPrime op do 14 aug, 2003 4:39 pm

Auteur: ?
Componist: ?
Uitgever: ?
Taal: Engels

Reacties

CommonCrawl [Bot]

Volg Muzikum