Disturbed

Disturbed
Prayer(5-string) (Bass tab)

Intro
G|-------------------------------------------------------
D|-------------------------------------------------------
A|-------------------------------------------------------
E|------------0-------0-------------------0------0-------
B|--3--3--3------3------3-----3--3--3------3------3------

Verse
G|-------------------------------------------------------------------------------------------------------
D|-------------------------------------------------------------------------------------------------------
A|-------------------------------------------------------------------------------------------------------
E|-----------------------------------------------2---2--2---2--2--2--2-------------0------0-----
B|--3--3--3--3--3--3--3--3--3--3--3--3--3--3------------------------------3--3--3------3------3-

Pre-Chorus
G|-------------------------------
D|-------------------------------
A|-------------------------------
E|-------------------------------
B|--9\4---4--4-----4--4/10-------

Chorus
G|-----------------------------------------------------------------------------
D|-----------------------------------------------------------------------------
A|-----------------------------------------------------------------------------
E|--5--5--5--5--5-----0--0---------------5--5--5--5--5-------------------------
B|------------------------------0--0--0----------------------2--2--0--0--0----

Bridge
G|-----------------------------------------------------------------------
D|-----------------------------------------------------------------------
A|-----------------------------------------------------------------------
E|--------------------------------------------------------------------0--
B|---4--4--3--4----4--4--3--4----4--3--4----4--3--4----4--3--------------

Outro
G|-----------------------------
D|-----------------------------
A|-----------------------------
E|-----------------------------
B|--3-----3--3-----3--3--3--3-- x3
Questions or corrections email me at kpemjib1@hotmail.com

OptimusPrime

Toegevoegd door OptimusPrime op do 14 aug, 2003 4:39 pm

Auteur: ?
Componist: ?
Uitgever: ?

Reacties

CommonCrawl [Bot]

Volg Muzikum