Disturbed

Disturbed
Mistress Ver 5 (Guitar tab)

Band: Disturbed
Album: Believe
Song: MISTRESS
Transcribed by: RYAN JONES


Tuning: Drop D
DADGBE

Intro / Verse - Distortion
E|---------------------------------------------------------|
B|---------------------------------------------------------|
G|---------------------------------------------------------|
D|-1-1-1--8-8-8-8--4-4-4-4--6---1-1-1--8-8-8-8--4-4-4-4--9-|
A|-1-1-1--8-8-8-8--4-4-4-4--6---1-1-1--8-8-8-8--4-4-4-4--9-|
D|-1-1-1--8-8-8-8--4-4-4-4--6---1-1-1--8-8-8-8--4-4-4-4--9-|x4


E|-----------------------------------------------------|
B|-----------------------------------------------------|
G|-----------------------------------------------------|
D|-1-1------------------------1 1----------------------|
A|-1-1------------------------1 1----------------------|
D|-1-1--8-8-8-8--4-4-4-4--6---1-1--8-8-8-8--4-4-4-4--9-|x2
PM - - - - - - - - - - - - - - - - - -

E|---------------------------------------------------------|
B|---------------------------------------------------------|
G|---------------------------------------------------------|
D|-1-1-1--8-8-8-8--4-4-4-4--6---1-1-1--8-8-8-8--4-4-4-4--9-|
A|-1-1-1--8-8-8-8--4-4-4-4--6---1-1-1--8-8-8-8--4-4-4-4--9-|
D|-1-1-1--8-8-8-8--4-4-4-4--6---1-1-1--8-8-8-8--4-4-4-4--9-|x2

Chorus - Distortion
E|--------------------------------------|
B|--------------------------------------|
G|--------------------------------------|
D|-8-xxxx-3-4-3-xx--8-xxxx-3-4-4-4-4-xx-|
A|-8-xxxx-3-4-3-xx--8-xxxx-3-4-4-4-4-xx-|
D|-8-xxxx-3-4-3-xx--8-xxxx-3-4-4-4-4-xx-|x4

Verse
E|---------------------------------------------------------|
B|---------------------------------------------------------|
G|---------------------------------------------------------|
D|-1-1-1--8-8-8-8--4-4-4-4--6---1-1-1--8-8-8-8--4-4-4-4--9-|
A|-1-1-1--8-8-8-8--4-4-4-4--6---1-1-1--8-8-8-8--4-4-4-4--9-|
D|-1-1-1--8-8-8-8--4-4-4-4--6---1-1-1--8-8-8-8--4-4-4-4--9-|x2


E|-----------------------------------------------------|
B|-----------------------------------------------------|
G|-----------------------------------------------------|
D|-1-1------------------------1 1----------------------|
A|-1-1------------------------1 1----------------------|
D|-1-1--8-8-8-8--4-4-4-4--6---1-1--8-8-8-8--4-4-4-4--9-|x2
PM - - - - - - - - - - - - - - - - - -

E|---------------------------------------------------------|
B|---------------------------------------------------------|
G|---------------------------------------------------------|
D|-1-1-1--8-8-8-8--4-4-4-4--6---1-1-1--8-8-8-8--4-4-4-4--9-|
A|-1-1-1--8-8-8-8--4-4-4-4--6---1-1-1--8-8-8-8--4-4-4-4--9-|
D|-1-1-1--8-8-8-8--4-4-4-4--6---1-1-1--8-8-8-8--4-4-4-4--9-|x2

Chorus - Distortion
E|--------------------------------------|
B|--------------------------------------|
G|--------------------------------------|
D|-8-xxxx-3-4-3-xx--8-xxxx-3-4-4-4-4-xx-|
A|-8-xxxx-3-4-3-xx--8-xxxx-3-4-4-4-4-xx-|
D|-8-xxxx-3-4-3-xx--8-xxxx-3-4-4-4-4-xx-|x4

End of the Bridge
E|-------------|
B|-----2-----1-|
G|-------------|
D|-1-1---1-1---|
A|-1-1---1-1---|
D|-1-1---1-1---|x2

Chorus - Distortion
E|--------------------------------------|
B|--------------------------------------|
G|--------------------------------------|
D|-8-xxxx-3-4-3-xx--8-xxxx-3-4-4-4-4-xx-|
A|-8-xxxx-3-4-3-xx--8-xxxx-3-4-4-4-4-xx-|
D|-8-xxxx-3-4-3-xx--8-xxxx-3-4-4-4-4-xx-|x4

Verse - Outro
E|---------------------------------------------------------|
B|---------------------------------------------------------|
G|---------------------------------------------------------|
D|-1-1-1--8-8-8-8--4-4-4-4--6---1-1-1--8-8-8-8--4-4-4-4--9-|
A|-1-1-1--8-8-8-8--4-4-4-4--6---1-1-1--8-8-8-8--4-4-4-4--9-|
D|-1-1-1--8-8-8-8--4-4-4-4--6---1-1-1--8-8-8-8--4-4-4-4--9-|x4


E|-----|
B|-----|
G|-----|
D|-1-1-|
A|-1-1-|
D|-1-1-|

OptimusPrime

Toegevoegd door OptimusPrime op do 14 aug, 2003 4:39 pm

Auteur: ?
Componist: ?
Uitgever: ?
Taal: Engels

Reacties

CommonCrawl [Bot]

Volg Muzikum