Disturbed

Disturbed
Mistress Ver 4 (Guitar tab)

INTRO
e|------------------------------------------------------
B|------------------------------------------------------
G|--------3-3-3-3---------------------------------------
D|---1-1--3-3-3-3--4-4-4-4--6-6--4-4--------------------
A|---1-1--1-1-1-1--4-4-4-4--6-6--4-4--8X----------------
D|---1-1-----------4-4-4-4--6-6--4-4--------------------
VERSE
e|------------------------------------------------------
B|------------------------------------------------------
G|------------------------------------------------------
D|---1-1------------------------------------------------
A|---1-1--1-1-1-1--------------------------------------- MUTED 4X
D|---1-1-----------4-4-4-4--6-6--4-4--------------------

e|------------------------------------------------------
B|------------------------------------------------------
G|------------------------------------------------------
D|---1-1------------------------------------------------
A|---1-1--1-1-1-1---------------------------------------played mormal
D|---1-1-----------4-4-4-4--6-6--4-4--------------------

CHOURS
e|------------------------------------------------------
B|------------------------------------------------------
G|------------------------------------------------------
D|------------------------------------------------------
A|---3-3-4-3--4-4-3-4--4x--5~~-4~~----------------------
E|---3-3-3-3--4-4-4-4------5~~-4~~----------------------

i havent been able to work out the bridge but i'll tab it when i have. enjoy!

OptimusPrime

Toegevoegd door OptimusPrime op do 14 aug, 2003 4:39 pm

Auteur: ?
Componist: ?
Uitgever: ?
Taal: Engels

Reacties

CommonCrawl [Bot]

Volg Muzikum