Disturbed

Disturbed
Mistress Ver 3 (Guitar tab)

Song: "Mistress"
Artist: Disturbed
Album: Believe
Transcribed By: Bryan Bramlett (bryanmb87@aol.com)

Tuning: Drop D, 1/2 Step Down (Db,Ab,Db,Gb,Bb,Eb)

INTRO:
|--------------------------------------------------------------|
|--------------------------------------------------------------|
|--------------------------------------------------------------|
|-2-2---------------------------2-2----------------------------|
|-2-2--9-9-9-9-5-5-5-5-7-7-5-5--2-2--9-9-9-9-5-5-5-5-7-7-10-10-|
|-2-2--9-9-9-9-5-5-5-5-7-7-5-5--2-2--9-9-9-9-5-5-5-5-7-7-10-10-|

VERSE:
|------------------------------------------------------------|
|------------------------------------------------------------|
|------------------------------------------------------------|
|------------------------------------------------------------|
|-2-2--2-2-2-2------------------2-2--2-2-2-2-------------3-3-|
|-2-2----------5-5-5-5-7-7-5-5--2-2----------5-5-5-5-7-7-----|
pm . . . . . . . . . . . . . . . . . . . . . . . .

CHORUS:
|-----------------------------------------------------------|
|-----------------------------------------------------------|
|-11---------------------------/11--------------------------|
|--9-XX-------XX---XX----------/9--XX-------XX---XX---------|
|--9-XX-4-5-4-XX-5-XX-5-7-X-2--/9--XX-4-5-4-XX-5-XX-5-7-9-5-|
|--9-XX-4-4-4-XX-0-XX-5-5-X-2--/9--XX-4-4-4-XX-0-XX-5-5-5-5-|

|-----------------------------------------------------------|
|-----------------------------------------------------------|
|-11---------------------------/11--------------------------|
|--9-XX-------XX---XX----------/9--XX-------XX---XX---------|
|--9-XX-4-5-4-XX-5-XX-5-7-X-2--/9--XX-4-5-4-XX-5-XX-5-7-9-5-|
|--9-XX-4-4-4-XX-0-XX-5-5-X-2--/9--XX-4-4-4-XX-0-XX-5-5-5-5-|

|------------------------|
|------------------------|
|------------------------|
|------------------------|
|-7-7-7-7-7--7-7-5-5-5-5-|
|-6-6-6-6-6--5-5-5-5-5-5-|

FILL:
|----|
|----|
|-10-|
|--9-|
|--9-|
|--9-|

INTERLUDE:
|---------------------------------------------|
|-----------------3---2------2----------------|
|---4---0-----0-----4----2--------------------|
|-----4---4----------------4------------------|
|-2---------2---2--------------5--5-5--0--4-4-|
|------------------------------4--5-5--0--4-4-|

INTERLUDE 2:
|-------------|
|----3------2-|
|-------------|
|-------------|
|-2-2---2-2---|
|-2-2---2-2---|

OptimusPrime

Toegevoegd door OptimusPrime op do 14 aug, 2003 4:39 pm

Auteur: ?
Componist: ?
Uitgever: ?
Taal: Engels

Reacties

CommonCrawl [Bot]

Volg Muzikum