Disturbed

Disturbed
Meaning Of Life Ver 4 (Guitar tab)

Song:Meaning of life Drop D tuning
Artist:Disturbed
Album:Down with the sickness
P.M.:palm mute

e-----------------
b-----------------
g----------------- (X2)
d-------2---------
a--2----2---------
e--0----0---------


(Next to are the main riff)
e------------------------------------------------
b------------------------------------------------
g------------------------------------------------
d------------------------------------------------
a--3--2------------------------------------5----7
e--1--0--0--0--0-0-0-0---0-0-0-0-0-0-0-000-3----5
P.M.--------------------------------->


e---------------------------------------------------
b---------------------------------------------------
g---------------------------------------------------
d---------------------------------------------------
a--3--2--------------------------3--2-----3----5---6
e--1--0---0--0--0-0-0-0---0-0-0--1--0--0--1----3---4
P.M.--------------------->

OptimusPrime

Toegevoegd door OptimusPrime op do 14 aug, 2003 4:39 pm

Auteur: ?
Componist: ?
Uitgever: ?
Taal: Engels

Reacties

CommonCrawl [Bot]

Volg Muzikum