Disturbed

Disturbed
Liberate Ver 3 (Guitar tab)

DISTURBED
LIBERATE
TABBED BY: ERICH WOLF
TUNNING:DROP D 1/2 STEP DOWN
(Db Ab Db Gb Bb Eb)
THIS IS 100% CORRECT

INTRO & ENDING FILL
Eb|-----------------------------------------------------------|-------|--------------
Bb|-----------------------------------------------------------|-------|--------------
Gb|-0-2-2222-2-2-2222-----------------------------------------|-------|--------------
Db|-0-2-2222-2-2-2222------PLAY-THIS-A-BUNCH-OF-TIMES---------|--9/2--|--------------
Ab|-0-2-2222-2-2-2222-----------------------------------------|--9/2--|--------------
Db|-0-2-2222-2-2-2222---------------LISTEN-FOR-TIMING---------|--9/2--|--------------

VERSE:
Eb|-----------|------|--------|------------------------------------------------------
Bb|-----------|------|--------|-----SLIDE---------------STRUM-3-TIMES-EXACTLY--------
Gb|--2--3--8--|--2---|--------|--2/1/9/10/5/9/--------------9-9-9---------ENDING-----
Db|--2--3--8--|--2-X2|--2p0---|--2/1/9/10/5/9/-REPEAT-X2----7-7-7--6-8-8----BEFORE---
Ab|--2--3--8--|--2---|--2p0---|--2/1/9/10/5/9/--------------7-7-7--7-7-8--CHORUS-----
Db|--2--3--8--|--2---|--2p0---|--2/1/9/10/5/9/--------------7-7-7------8-------------
(Tremolo pick here)
CHORUS:
Eb|----------------------------------------------------------------------------------
Bb|----------------------------------------------------------------------------------
Gb|--5---------4-------------------------7----79797979-------------------------------
Db|--5----4----2---REPEAT-X3--THEN-PLAY--7----79797979----xxxx-----------------------
Ab|--3----3----2-------------------------5----79797979----xxxx-----------------------
Db|------------2------------------------------79797979----xxxx-----------------------

INTERLUDE: ^ = PITCH HARMONIC
Eb|----------------------------------------------------------------------------------
Bb|----------------------------------------------------------------------------------
Gb|--2-2-2-------------2-2-2--------7^------2-2-2----------2-2-2---------------------
Db|--2-2-2------3------2-2-2------7^--------2-2-2------3---2-2-2-------7^------------
Ab|--2-2-2--2-3--------2-2-2----7^----------2-2-2--2-3-----2-2-2----7^----7^---------
Db|--2-2-2-------------2-2-2----------------2-2-2----------2-2-2---------------------


INTERLUDE: CONTINUED
Eb|----------------------------------------------------------------------------------
Bb|----------------------------------------------------------------------------------
Gb|--2-2-2-------------2-2-2-------------7^--2-2-2----------2-2-2---------7^---------
Db|--2-2-2------3------2-2-2------7^---7^----2-2-2------3---2-2-2----7^--------------
Ab|--2-2-2--2-3--------2-2-2---------7^------2-2-2--2-3-----2-2-2-------7^---7^------
Db|--2-2-2-------------2-2-2-----------------2-2-2----------2-2-2--------------------

Eb|----------------------------------------------------------------------------------
Bb|----------------------------------------------------------------------------------
Gb|--5---------4---------------------------------------------------------------------
Db|--5----4----2---------PLAY-THIS-TWICE-AFTER-INTERLUDE-----------------------------
Ab|--3----3----2--------------------------------THEN-PLAY-CHORUS---------------------
Db|------------2---------------------------------------------------------------------


*ORDER OF PLAY*

INTRO
VERSE
CHORUS
INTRO
VERSE
CHORUS
INTERLUDE
CHORUS
ENDING


DISTURBED IS A AWESOME BAND, THANKS TO DISTURBED FOR MAKING THIS SONG POSSIBLE TO PLAY AND TAB. ENJOY THE TAB.

IF YOU HAVE ANY COMMENTS OR ANY OTHER QUESTIONS, PLEASE E-MAIL ME AT EJW_XXXGODSMACKXXX@YAHOO.COM

IF ANYTHING IS WRONG OR DOESN'T SOUND RIGHT, PLEASE TELL ME SO THAT I CAN FIX IT AND SO THAT I CAN ALSO PLAY IT BETTER. THANK YOU

OptimusPrime

Toegevoegd door OptimusPrime op do 14 aug, 2003 4:39 pm

Auteur: ?
Componist: ?
Uitgever: ?
Taal: Engels

Reacties

CommonCrawl [Bot]

Volg Muzikum