Disturbed

Disturbed
Glass Shatters Ver 2 (Guitar tab)

Band: Disturbed
Song: Glass Shatters (Stone Cold's theme song)
Tabbed By: Dysfunction

Tuning: Db,Ab,Db,Gb,Bb,Eb
\=Slide Down
P.M=Palm Mute
/=Tremolo Pick that note

Intro

Eb--------------------------------------------------------
Bb----------------------10\-------------------------------
Gb------------------------------------------------8\------
Db---0-0--0-1--0-0---------0-0--0-1--0-0------------------
Ab---0-0--0-1--0-0---------0-0--0-1--0-0------------------
Db---0-0--0-1--0-0---------0-0--0-1--0-0------------------
P.M............... P.M..........
Eb--------------------------------------------------------
Bb----------------------10\-------------------------------
Gb------------------------------------------------8\------
Db---0-0--0-1--0-0---------0-0--0-1--0-0------------------
Ab---0-0--0-1--0-0---------0-0--0-1--0-0------------------
Db---0-0--0-1--0-0---------0-0--0-1--0-0------------------
P.M............... P.M..........

After Fill 2
Eb---------------------------------------------------------------------
Bb-------------------------10\-----------------------------------------
Gb----------------------------------------------------------8\---------
Db---0-0--0-1--0-0--0-----------0-0--0-1--0-0--0-----------------------
Ab---0-0--0-1--0-0--0-----------0-0--0-1--0-0--0-----------------------
Db---0-0--0-1--0-0--0-----------0-0--0-1--0-0--0-----------------------
P.M.................. P.M.............
Eb---------------------------------------------------------------------
Bb-------------------------10\------------------------------16\--------
Gb---------------------------------------------------------------------
Db---0-0--0-1--0-0--0-----------0-0--0-1--0-0--0-----------------------
Ab---0-0--0-1--0-0--0-----------0-0--0-1--0-0--0-----------------------
Db---0-0--0-1--0-0--0-----------0-0--0-1--0-0--0-----------------------
P.M.................. P.M.............

Verse

Eb-----------------------------
Bb-----------------------------
Gb-----------------------------
Db---0-0--0-1--0-0--0-0--1-3---
Ab---0-0--0-1--0-0--0-0--1-3---
Db---0-0--0-1--0-0--0-0--1-3---
P.M............................

Fill
Eb--------------------------------
Bb--------------------------------
Gb--------------------------------
Db--------------------------------
Ab--------------------------------
Db---6p0--6p0--6p0--6p0�6p0-6p0---

Eb---------------------------------------
Bb---------------------------------------
Gb---------------------------------------
Db---------------------------------1-1---
Ab---------------------------------1-1---
Db---6p0--6p0--6p0--6p0�6p0-6p0----1-1---

Fill 2 (Tremolo Pick This)
Eb-----------------------------------------------------------------
Bb-----------------------------------------------------------------
Gb---10------------------------------------------------------------
Db---10//////12p10///////12p10///////12p10//////-------------------
Ab-----------------------------------------------------------------
Db-----------------------------------------------------------------

Eb-----------------------------------------------------------------
Bb---10-------------------------------------------10\--------------
Gb---10//////12p10///////12p10///////12p10////////10\--------------
Db-----------------------------------------------------------------
Ab-----------------------------------------------------------------
Db-----------------------------------------------------------------

Interlude Play after Dan stops playin 4 a while
Eb--------------------------------------------------------------
Bb--------------------------------------------------------------
Gb--------------------------------------------------------------
Db--0-0--0-1--0-0----------------------0-0--0-1--0-0--0-0--1-3--
Ab--0-0--0-1--0-0�play 3 times then----0-0--0-1--0-0--0-0--1-3--
Db--0-0--0-1--0-0----------------------0-0--0-1--0-0--0-0--1-3--

OptimusPrime

Toegevoegd door OptimusPrime op do 14 aug, 2003 4:39 pm

Auteur: ?
Componist: ?
Uitgever: ?
Taal: Engels

Reacties

CommonCrawl [Bot]

Volg Muzikum