Disturbed

Disturbed
Fear Ver 2 (Guitar tab)

title:fear
arist: disturbed
tabbed by: ambo avellanosa (cypress 311)

INTRO:
|----19-18---------15--17-|
|-17--------17-19---------|
|-------------------------|
|-------------------------|
|-------------------------|
|-------------------------|

MAIN RIFF:
|--------------|
|--------------|
|--------------|
|-2-0-2--3-2-0-|
|-2-0-2--3-2-0-|
|-2-0-2--3-2-0-|

FILL:
|-----|
|-----|
|-----|
|-5-2-|
|-5-2-|
|-5-2-|

VERSE:
|--------------|
|--------------|
|--------------|
|-2-0-2--3-2-0-|
|-2-0-2--3-2-0-|
|-2-0-2--3-2-0-|
PM. . . . .

BRIDGE:
|-----------------------------------------|
|-----------------------------------------|
|-----------------------------------------|
|-2-5-2-2--2-8-2-2--25252-5-22--2222228-8-|
|-2-5-2-2--2-8-2-2--25252-5-22--2222228-8-|
|-2-5-2-2--2-8-2-2--25252-5-22--2222228-8-|

CHORUS:
|-------------------------------|
|-------------------------------|
|-------------------------------|
|-/14-0-3-5-5-10--/14-0-3-5-5-3-|
|-/14-0-3-5-3--8--/14-0-3-5-5-3-|
|-/14-0-3-5-------/14-0-3-5-5-3-|

INTERLUDE:
|----------------------------|
|----------------------------|
|----3----3----3----3--------|
|-22---22---22---22---2-2320-|
|-22---22---22---22---2-2320-|
|-22---22---22---22---2-2320-|

FILL 2:
|---------------|
|---------------|
|---------------|
|---------------|
|---------------|
|-2-2320-2-2320-|

OptimusPrime

Toegevoegd door OptimusPrime op do 14 aug, 2003 4:39 pm

Auteur: ?
Componist: ?
Uitgever: ?
Taal: Engels

Reacties

CommonCrawl [Bot]

Volg Muzikum