Disturbed

Disturbed
Droppin Plates Ver 2 (Guitar tab)

Song: "Droppin’ Plates"
Artist: Disturbed
Album: The Sickness
Transcribed By: Bryan Bramlett (bryanmb87@aol.com)

Tuning: 1/2 Step Down, Drop D

CHORUS:
|-----------------------|
|-----------------------|
|-----------------------|
|-0--------1-1--------7-|
|-0--------1-1--------7-|
|-0-0-0000-1-1-0-000007-|
PM . .... . .....

FILL:
|-8-8-8-8-8-8-8-8-|
|-8-8-8-8-8-8-8-8-|
|-----------------|
|-----------------|
|-----------------|
|-----------------|

VERSE:
|---------------------------------|
|---------------------------------|
|---------------------------------|
|-13-12--10-13-12--13-12--5--3/10-|
|-13-12--10-13-12--13-12--5--3/10-|
|-13-12--10-13-12--13-12--5--3/10-|

BRIDGE:
|--------------------------------------|
|--------------------------------------|
|--------------------------------------|
|-1-0-----6-3323211--1-0-----6-1135531-|
|-1-0-6-5-6-3323211--1-0-6-5-6-1135531-|
|-1-0-----6-3323211--1-0-----6-1135531-|
PM ....... .......

INTERLUDE:
|-------------------------|
|-------------------------|
|-------------------------|
|-------------------------|
|-------------------------|
|-0-1-0-1-0-1-0-000-0-000-|

INTERLUDE 2:
|-----------------|
|-----------------|
|-----------------|
|-0-1-0-1-0-1-0-0-|
|-0-1-0-1-0-1-0-0-|
|-0-1-0-1-0-1-0-0-|

OptimusPrime

Toegevoegd door OptimusPrime op do 14 aug, 2003 4:39 pm

Auteur: ?
Componist: ?
Uitgever: ?
Taal: Engels

Reacties

CommonCrawl [Bot]

Volg Muzikum