Disturbed

Disturbed
Darkness Ver 4 (Guitar tab)

Band: Disturbed
Song: Darkness
CD: Believe
Tabbed by: BlindedRhythm
E-mail: MndlessGuitarist@hotmail.com

Tuning: E Flat (Eb Ab Db Gb Bb Eb)

Intro/Verse
|---------------------------------|
|---------------------------------|
|---------------------------------|
|-----4---4-0---0-----4---4-5---0-|
|---2---2-----2-----2---2-----2---|
|-0---------------3---------------|x7

Chorus
|---------0----------------0-----|
|-----------3----------------3---|
|-------------0----------------0-|
|--------------------------------|
|-3-3-3-3---------2--------------|
|--------------------5--0--------|x3

|---------0-------0--0-0-|
|-----------3-----5--7-7-|
|-------------0---0--0-0-|
|-----------------5--7-7-|
|-3-3-3-3---------3--5-5-|
|------------------------|

Play Verse 6 times.
Play Chorus the same.

Interlude
|-0--0-0-0-0--0-0-0--0-0-0-0--0-0-0-0--0-0-|
|-0--0-0-0-0--0-0-0--0-0-0-x--0-0-0-0--0-0-|
|-0--0-x-x-0--x-x-0--0-0-0-x--0-0-0-0--x-x-|
|-9--9-x-x-9--x-x-9--9-9-9-x--9-9-9-9--x-x-|
|-7--7-x-x-7--x-x-7--7-7-7-x--7-7-7-7--x-x-|
|------------------------------------------|x4
^
NOTE: At the ^, the 4th time, just strumm the notes slowly.

Repeat Verse 6 times.
Play Chorus the same again.
Play the Verse 4 times until the end.

That's all there is to it!

OptimusPrime

Toegevoegd door OptimusPrime op do 14 aug, 2003 4:39 pm

Auteur: ?
Componist: ?
Uitgever: ?
Taal: Engels

Reacties

CommonCrawl [Bot]

Volg Muzikum