Disturbed

Disturbed
Breathe (Guitar tab)

Author/Artist: Disturbed
Title: Breathe
Album: Believe
Transcribed by: Erich Wolf
Email: ejw_xxxgodsmackxxx@yahoo.com

TUNNING: Db Ab Db Gb Bb Eb

I BELIEVE THIS SONG IS ABOUT 95% CORRECT OR BETTER.
IT WILL TAKE A LITTLE GETTING USE TOO.
ENJOY!

INTRO:
------------------------------8-7---------------------------------------------
------------------------------------------------------------------------------
-------------------7-7-9-10--------------------------7-----5------------------
--9h10-9h10-9h10--------------------9h10-9h10-9h10---7--3--5--5----x2---------
--7----7----7-----------------------7----7----7------5--3--3--5---------------
--7----7----7-----------------------7----7----7---------3-----5---------------
P.M.----

VERSE:
------------------------------------------------------------------------------
------------------------------------------------------------------------------
-------------------------------------------7-----5----------------------------
--9h10-9h10-9h10---9------9h10-9h10-9h10---7--3--5--5----9h10-9h10-9h10-------
--7----7----7--------7----7----7----7------5--3--3--5----7----7----7----------
--7----7----7----------7--7----7----7---------3-----5----7----7----7----------

VERSE:CONTINUED
-------------8-7--------------------------------------------------------------
------------------------------------------------------------------------------
--7-7-9-10---------7-----5----------------------------------------------------
-------------------7--3--5--5-------------------------------------------------
-------------------5--3--3--5-------------------------------------------------
----------------------3-----5-------------------------------------------------
P.M.----

POST VERSE: (PICKING IS NOT EXACT BUT IT IS EASY TO FIGURE OUT)
-------------------------------------|----------------------------------------
-------------------------------------|----------------------------------------
------------------------5555---------|----------------7777777---9-10-9-10-----
--22222---3333---0000---5555---2222--|--3333---0000---5555555---7-8--7-8------
--22222---3333---0000---3333---2222--|--3333---0000---5555555---7-8--7-8------
--22222---3333---0000----------2222--|--3333---0000---------------------------
(THIS PART COMES RIGHT AFTER THE VERSE)*LISTEN CAREFULLY FOR TIMING*

CHORUS:
------------------------10-let-ring-for-a-second------------------------------
------------------------------------------------------------------------------
------------------------------------------------------------------------------
--7-7--x--5-5--x--0-0--------0-0-0-0---2/3-3--5-5--3--2-2-x-2-2-2-------------
--7-7--x--5-5--x--0-0--------0-0-0-0---2/3-3--5-5--3--2-2-x-2-2-2-------------
--7-7--x--5-5--x--0-0--------0-0-0-0---2/3-3--5-5--3--2-2-x-2-2-2-------------


CHORUS:CONTINUED
------------------------------------------------------------------------------
------------------------------------------------------------------------------
------------------------7-let-ring-for-a-second-------------------------------
--7-7--x--5-5--x--0-0--------0-0-0-0---2/3-3--5-5--3--2-2-x-2-2-2-------------
--7-7--x--5-5--x--0-0--------0-0-0-0---2/3-3--5-5--3--2-2-x-2-2-2-------------
--7-7--x--5-5--x--0-0--------0-0-0-0---2/3-3--5-5--3--2-2-x-2-2-2-------------


INTERLUDE: (PICKING NOT EXACT)
------------------------------------|---------------|-------------------------
------------------------------------|---------------|-------------------------
------------------------------------|---------------|--5-----5-----5----------
--7-7-7-7-7-7---10-10-10-10-10-10---|--10--9--10-9--|--5--x--5--x--5--5-------
--7-7-7-7-7-7---7--7--7--7--7--7----|--7---7--7--7--|--3--x--3--x--3--5-------
--7-7-7-7-7-7---7--7--7--7--7--7----|--7---7--7--7--|-----x-----x-----5-------
(PLAY AROUND WITH THIS PART, IT SOUNDS LIKE SOMETHING OUT OF A TOOL SONG)

ENDING: (PICKING NOT EXACT)
------------------------------------------------------------------------------
------------------------------------------------------------------------------
--7-7-7-7---5-5-5-5-------7-7-7-7---------------------------------------------
--5-5-5-5---3-3-3-3--x2---5-5-5-5----7----------------------------------------
--5-5-5-5---3-3-3-3-------5-5-5-5----7----------------------------------------
--5-5-5-5---3-3-3-3-------5-5-5-5----7----------------------------------------
(PLAY AROUND WITH ENDING ALSO)




DISTURBED IS A GREAT BAND.
THANKS FOR THE SONG DISTURBED.

OptimusPrime

Toegevoegd door OptimusPrime op do 14 aug, 2003 4:39 pm

Auteur: ?
Componist: ?
Uitgever: ?
Taal: Engels

Reacties

CommonCrawl [Bot]

Volg Muzikum