Disturbed

Disturbed
Prayer Ver 7 (Guitar tab)

Disturbed
Prayer
Believe

metallicos02@hotmail.com


INTRO-
-12-12-12-12-12-12-12-12-12-12-12-12-15-15-15-15-15-15-17-17-17-17-17-12
-00-00-00-13-00-13-00-00-00-13-00-13-00-00-00-13-00-13-00-00-00-13-00-00

1st and 2nd verse

palm mute
Another dream that will never come true��
0-0-0-0-0-0-0-0-0-0-0-0-0-0-0-0-0-0-0-0-

Pre- chorus
Let me enlighten you

7-----1---1-1/3---3---3-3-0---7-----1---1-1/3---3---3-3-0
7-----1---1-1/3---3---3-3-0---7-----1---1-1/3---3---3-3-0
7-----1---1-1/3---3---3-3-0---7-----1---1-1/3---3---3-3-0

Chorus

This is the way I pray Living my life�s not hard enough

10------------x-x-5---x-x-7---7/5---3-----8
08------------x-x-5---x-x-7---7/5---3-----8
---------------x-x-3---x-x-5---5/3---3-----8

Burn me alive inside

14-12-12-10/12/8-8-8-8-8-8-8-8-8-8-8-8-8-8-8-8-8-8-8-8-8-8-8-8
12-12-12-10/12/8-8-8-8-8-8-8-8-8-8-8-8-8-8-8-8-8-8-8-8-8-8-8-8
12-12-12-10/12/8-8-8-8-8-8-8-8-8-8-8-8-8-8-8-8-8-8-8-8-8-8-8-8

let ring

0----------------------------------------------------------------------------------
0----------------------------------------------------------------------------------
0------------------------------------------------------------------------------/17

interlude

2-2-0-2----2-2-0-2---0-2-0-2---2---0-2---2---0-2-3~
repeat

Return to me, return to me

2-2-0-2----2-2-0-2---0-2-0-2---2---0-2---2---0-2-3
2-2-0-2----2-2-0-2---0-2-0-2---2---0-2---2---0-2-3
2-2-0-2----2-2-0-2---0-2-0-2---2---0-2---2---0-2-3


THAT�S ABOUT ALL YOU SHOULD NEED, email me at metallicos02@hotmail.com if you got any questions

OptimusPrime

Toegevoegd door OptimusPrime op zo 01 dec, 2002 9:19 am

Auteur: ?
Componist: ?
Uitgever: ?
Taal: Engels

Reacties

CommonCrawl [Bot]

Volg Muzikum