Disturbed

Disturbed
Prayer Ver 5 (Guitar tab)

Artist: Disturbed
Title : Prayer
Tabbed By Gaurav Gupta (from India)
(gauravgupta_therock@rediffmail.com)

Its weird. I have never seen any Indian Tabber who has tabbed rock songs.
Anyway.....

m = Muted
D = Strum Downwards
U = Strum Upwards
\ = Slide Upwards

Tuning: Drop - D half step down
===============================

Intro
=====

Eb|-------------------| |----------------|
Bb|-------------------| |----------------|
Gb|-------------------| |--------------5-|
Db|-------------------| x7 |--------------5-|
Ab|-0m-0m-0m-1m-0m-1m-| |-0m-0m--1m-1m-3-|
Db|-0m-0m-0m-1m-0m-1m-| |-0m-0m--1m-1m---|

If you listen to the intro carefully you will hear something in the first
part of the intro that is recorded over the song. it's like this...

Eb|---------------------------------------------------------------------------|
Bb|---------------------------------------------------------------------------|
Gb|---------------------------------------------------------------------------|
Db|---------------1-1-1-1-1-1---------------------------------------1-1-1-1---|
Ab|---3-3-3-3-3-3-------------0-0-0-0-0-0-0-0-0-0-0-0---3-3-3-3-3-3---------3-|
Db|---------------------------------------------------------------------------|

Verse
=====

Eb|-------------------| |-------|
Bb|-------------------| |-------|
Gb|-------------------| |-8-8\5-| This is a little fill in kinda thing
Db|-------------------|x8 |-8-8\5-| that is played after you play the first
Ab|-0m-0m-0m-1m-0m-1m-| |-6-6\3-| part 8 times.
Db|-0m-0m-0m-1m-0m-1m-| |-------|

Pre-Chorus
========== This is the way i.....
Eb|-------------------------| |-------------|
Bb|-------------------------| |-------------|
Gb|-2---------------------3-| |-2-----------|
Db|-2--1m--1m-1m-1m-1m-3m-3-| x3 |-2--3--------|
Ab|-0--1m--1m-1m-1m-1m-3m-1-| |-0--3--------|
Db|----1m--1m-1m-1m-1m-3m---| |----3--------|

Chorus
======
Livin Isn't Hard Burn Alive Inside
Eb|-----------------------------------------------------------------------------|
Bb|-----------------------------------------------------------------------------|
Gb|-----------------------------------------------------------------------------|
Db|--8----3------5------8m-------------------12----10------8m-------------------|
Ab|--8----3------5------8m-------------------12----10------8m-------------------|
Db|--8----3------5------8m-------------------12----10------8m-------------------|
D D U D U D D U D U D D D U D U D D U D U D

(continued)
Eb|------------------------------------------|
Bb|------------------------------------------|
Gb|------------------------------------------|
Db|--3--5--8m--------------------3---5---8m--|
Ab|--3--5--8m--------------------3---5---8m--|
Db|--3--5--8m--------------------3---5---8m--|
D D U D U D D U D U D listen to the song to get
the strumming pattern

After the second chorus

Fig 1
=====
Db|-0--------------------------|
Ab|-0--------------------------| Let it fade for a moment, then just slide
Db|-0---------------------\2---| the 6th string up from infinity

Bridge
======
(Return to me......)

Eb|------------------------------------------------|
Bb|------------------------------------------------|
Gb|------------------------------------------------|
Db|------------------------------------------------|
Ab|------------------------------------------------|
Db|-2-2-0-2---2-2-0-2---2-2-0-2---2-0-2---2-0-2-3~-|

Eb|--------------------------------------------------|
Bb|--------------------------------------------------|
Gb|--------------------------------------------------|
Db|--------------------------------------------------|
Ab|-----------------------------------------3m-3m-3m-|
Db|-2-2-0-2---2-2-0-2---2-2-0-2---2-2-0-2---3m-3m-3m-|

Ending
======
Eb|----------------------------------------------------------------|
Bb|----------------------------------------------------------------|
Gb|----------------------------------------------------------------|
Db|----------------------------------------------------------------|
Ab|-0m-0m-0m-1m-0m-1m--0m-0m-0m-1m-0m-1m--0m-0m-0m-1m-0m-1m--0m-0m-|
Db|-0m-0m-0m-1m-0m-1m--0m-0m-0m-1m-0m-1m--0m-0m-0m-1m-0m-1m--0m-0m-|

Believe It Or Not......That's All There is in the song. Its an awesome song
and don't forget to check out the video. Download the video from urbanchaosvideos.com

"Rock On!"

Order
=====
Intro x2
Verse x2
Pre-chorus
Chorus
Intro x1
Verse x2
Pre-chorus
Chorus, Fig 1
Bridge x1 with distortion then x2 with heavy distortion
Chorus x2
Ending

Please send any comments or suggestions to gauravgupta_therock@rediffmail.com
I mean it.......Not just writing it for the heck of it.

OptimusPrime

Toegevoegd door OptimusPrime op zo 01 dec, 2002 9:19 am

Auteur: ?
Componist: ?
Uitgever: ?
Taal: Engels

Reacties

CommonCrawl [Bot]

Volg Muzikum