Disturbed

Disturbed
Conflict Ver 2 (Guitar tab)

Song: "Conflict"
Artist: Disturbed
Album: The Sickness
Transcribed By: Boris Zivkovic
Tuning: 1/2 Step Down

VERSE:
|-------------------------------------|
|-------------------------------------|
|-------------------------------------|
|-------------------------------------|
|-------------------------------------|
|-3p2p0-0-3p2p0-0-3p2p0-0-3p2p0-0-2-2-|

FILL:
|---|
|---|
|---|
|---|
|-2-|
|-0-|

CHORUS:
|-------------------------------|
|-------------------------------|
|-5--5-5-4-2--------------------|
|-5--5-5-4-2-2-XXXXXXXXXXXXXXXX-|
|-3--3-3-2-0-2-XXXXXXXXXXXXXXXX-|
|------------0-XXXXXXXXXXXXXXXX-|
play 3X then:
|----------------------------------|
|----------------------------------|
|-77777777777777778888888888888888-|
|-77777777777777778888888888888888-|
|-55555555555555556666666666666666-|
|----------------------------------|

BRIDGE:
|-------------------------|
|-------------------------|
|-------------------------|
|-XXXX2-XXXX3-XXXX4-XXXX5-|
|-XXXX2-XXXX3-XXXX4-XXXX5-|
|-XXXX0-XXXX1-XXXX2-XXXX3-|

FILL 2:
|----------------------------------|
|----------------------------------|
|----------------------------------|
|-XXXXXXXXXXXXXXXXXXXXXXXX44444444-|
|-XXXXXXXXXXXXXXXXXXXXXXXX44444444-|
|-XXXXXXXXXXXXXXXXXXXXXXXX22222222-|

INTERLUDE:
|-----------------------|
|-----------------------|
|-----------------------|
|-4-5-5-5-5-6-4-5-5-6-2-|
|-4-5-5-5-5-6-4-5-5-6-2-|
|-2-3-3-3-3-4-2-3-3-4-0-|

INTERLUDE 2:
|------------------------------|
|------------------------------|
|------------------------------|
|-4--4--4--X-X-X-X-X-4-X-X-X-X-|
|-4--4--4--X-X-X-X-X-4-X-X-X-X-|
|-2--2--2--X-X-X-X-X-2-X-X-X-X-|

OUTRO
|-----------------------------------|
|-----------------------------------|
|-----------------------------------|
|-4----4-4----4-4----4-4----X-X-X-4-|
|-4----4-4----4-4----4-4----X-X-X-4-|

OptimusPrime

Toegevoegd door OptimusPrime op zo 01 dec, 2002 9:19 am

Auteur: ?
Componist: ?
Uitgever: ?
Taal: Engels

Reacties

CommonCrawl [Bot]

Volg Muzikum