Disturbed

Disturbed
Game (Guitar tab)

-------------------------------------------------------------------------------
THE GAME - DISTURBED
-------------------------------------------------------------------------------

By: JAMES LOW whatisaturnip@yahoo.co.uk TUNE DOWN 1/2 STEP

e|12--------13---------12--------------------15------------------------------|
B|--------------------------------15-----------------------------------------|
G|---------------------------------------------------------------------------|
D|---------------------------------------------------------------------------|
A|---------------------------------------------------------------------------|
E|---------------------------------------------------------------------------|
P.M.---| P.M.---| P.M. P.M.---| P.M.----|
e|---------------------------------------------------------------------------|
B|---------------------------------------------------------------------------|
G|4------------4-----------5-------7-/-9-------------------------------------|
D|2------------2-----------3-----------------------5-/-7---------------------|
A|2------------2-----------3-------5-/-7---------------------------3---------|
E|0---0-0-0-0-----0-0-0-0-----0-0---------0-0-0-0--3-/-5--0-0-0-0--1---------|
P.M.---| P.M.---| P.M. P.M.---| P.M.
e|---------------------------------------------------------------------------|
B|---------------------------------------------------------------------------|
G|4------------4-----------5-------7-/-9-------------------------------------|
D|2------------2-----------3-----------------------5-/-7---------------------|
A|2------------2-----------3-------5-/-7-----------------------8-------------|
E|0---0-0-0-0-----0-0-0-0-----0-0---------0-0-0-0--3-/-5--0-0--6-------------|

e|-----------------------------24-\------------------------------------------|
B|---------------------------------------------------------------------------|
G|------------------------21-------------------------------------------------|
D|---------------------------------------------------------------------------|
A|---------------------------------------------------------------------------|
E|0-0-0-----0----0----0-0-0----0-0-0----0------0---0-0-0---------------------|
P.M.---| P.M.---|
e|-------------------------------0-------------------------------------------|
B|-------------------------------0-------------------------------------------|
G|4-----------4------------------2-------------------------------------------|
D|2-----------2-----------3------3-------------------------------------------|
A|2-----------2-----------3------3-------------------------------------------|
E|0--0-0-0-0-----0-0-0-0--1------1-------------------------------------------|

e|-----12-----------------------12-----\----0--------------------------------|
B|-----15b----------------------15b----\----0------6-------------------------|
G|-------------------------------------------------8b------------------------|
D|---------------------------------------------------------------------------|
A|---------------------------------------------------------------------------|
E|0-----------1-----1-----0--------------------------------------------------|
P.M.---------------------|
e|---------------------------------------------------------------------------|
B|---------------------------------------------------------------------------|
G|---------------------------------------------------------------------------|
D|---------------------------------------------------------------------------|
A|---------------------------------2-2-2-------------------------------------|
E|0-0-0----0----0-----17--\--------0-0-0----0------0-------0-----------------|
P.M.--------------------|
e|---------------------------------------------------------------------------|
B|---------------------------------------------------------------------------|
G|---------------------------------------------------------------------------|
D|---------------------------------------------------------------------------|
A|-------------------------------2-2-2----2---2----2-2-2---------------------|
E|0-0-0------0-----0-----0-------0-0-0----0---0----0-0-0---------------------|

OptimusPrime

Toegevoegd door OptimusPrime op zo 01 dec, 2002 9:19 am

Auteur: ?
Componist: ?
Uitgever: ?
Taal: Engels

Reacties

CommonCrawl [Bot]

Volg Muzikum