Headstrong

Headstrong
Adriana Ver 2 (Guitar tab)

Band: Headstrong
Song: Adriana
Album: Headstrong

Copyright (c) RCA Records, 2002
Version 2.0 - 7/16/03

Transcribed By: metaltabs28
Email: metaltabs28@yahoo.com


Intro Riff x2
|-------------------------------------------|
|-------------------------------------------|
|---------7---------------7-10--------------|
|--0-0-10---10--0-0--7-10------7-10---------|
|-------------------------------------------|
|-------------------------------------------|


Riff A
|-------------------------------|
|-------------------------------|
|--------------------7-10-------|
|--0-0--7----0--7-10-------7-10-|
|---------8---------------------|
|-------------------------------|
^^repeat as necessary^^

*when the singing starts play Riff A palm muted*

Riff B (repeat as necessary)
E------ph-----ph--|
B-------7-----7---|
G-----------------|
D--0-0-----0------|
A-----------------|
D-----------------|
"Go burn a hole..."

Chorus
E---------------------------------------------------------------------------
B---------------------------------------------------------------------------
G--7/-----------------7/-----------------7/------------------7/-------------
D--7/0--0-5-3-0-5-3---7/0--0-5-3-0-5-3---5/0--0-5-3-0-5-3---5/0-0-3-5-0-5-3-
A--5/0--0-5-3-0-5-3---5/0--0-5-3-0-5-3---5/0--0-5-3-0-5-3---5/0-0-3-5-0-5-3-
D----0--0-5-3-0-5-3-----0--0-5-3-0-5-3-----0--0-5-3-0-5-3-----0-0-3-5-0-5-3-

Riff C (rpt as necessary)
|------------------------------|
|------------------------------|
|-----------7---------------7--|
|0-5/6/7--0-7----0-5/6/7--0-7--|
|0-5/6/7--0-5----0-5/6/7--0-5--|
|0-5/6/7--0------0-5/6/7--0----|
"if I put my mind to it..."

^^repeat 4 more times^^

Play Riff A, Riff B, Chorus then-


Fill 1 (3x)
|------------------|
|------------------|
|------------------|
|--0-4-6-0-4-6--0--|
|---------------0--|
|---------------0--|
"Everyone..."

end on-
|--------------|
|--------------|
|--------------|
|--0-0-0-0-0-0-|
|--0-0-0-0-0-0-|
|--0-0-0-0-0-0-|


Bridge:(listen to song for how many strums each)
|--------------
|--------------
|--4-4-4-4-4-4-

OptimusPrime

Toegevoegd door OptimusPrime op zo 30 okt, 2005 9:28 am

Auteur: ?
Componist: ?
Uitgever: ?
Taal: Engels

Reacties

CommonCrawl [Bot]

Volg Muzikum