HammerFall

HammerFall
Stone Cold (Guitar tab)

Stone Cold

by HammerFall

A(m)
pm---| pm---| pm
e||----------------------------|--------------------------|
B||----------------------------|--------------------------|
G||-*--------------------------|--------------------------|
D||-*-7--------9--------10-----|-7------------------------|
A||---7--7--7--7--7--7--7--7---|-7------------------------|
E||----------------------------|--------------------------|

F
pm---| pm---| pm
e|--------------------------|--------------------------|
B|--------------------------|--------------------------|
G|--------------------------|--------------------------|
D|-7--------9--------10-----|-7------------------------|
A|-8--8--8--8--8--8--8--8---|-8------------------------|
E|--------------------------|--------------------------|

G
pm---| pm---| pm
e|--------------------------|--------------------------|
B|--------------------------|--------------------------|
G|--------------------------|--------------------------|
D|-12-------10-------9------|-12-------10-------9------|
A|-10-10-10-10-10-10-10-10--|-10-10-10-10-10-10-10-10--|
E|--------------------------|--------------------------|

E
pm---| pm---| pm
e|--------------------------|---------------------------||---------|
B|--------------------------|---------------------------||---------|
G|--------------------------|-------------------------*-||-2-------|
D|-6--------7--------9------|-10----9-----7-----6-----*-||-2-------|
A|-7--7--7--7--7--7--7--7---|-7--7--7--7--7--7--7--7----||-0-------|
E|--------------------------|---------------------------||---------|

Tschwoss

Toegevoegd door Tschwoss op di 11 mei, 2004 4:11 pm

Auteur: Joacim Cans, Jesper Strömblad, Oscar Dronjak
Componist: Jesper Strömblad, Joacim Cans, Oscar Dronjak
Uitgever: Nuclear Blast
Uitgegeven in: 1999
Beschikbaar op: Glory to the Brave (1997), One Crimson Night (2003)

Reacties

CommonCrawl [Bot]

Volg Muzikum