HammerFall

HammerFall
Glory To The Brave (Guitar tab)

Artist: Hammerfall
Album: Glory to the brave
Title: Glory to the brave

D A A# F C D A
e|------------------------------------------------------------------|
h|------------------------------------------------------------------|
g|--10-10-10-10-9-7-5----7-7-7-7-5-7-----10-10-10-10-9-7-5-7-9~~----|
d|--------------------7--------------7~~~---------------------------|
a|------------------------------------------------------------------|
E|------------------------------------------------------------------|
A# C D~~~
e|------------------------------------------------------------------|
h|------------------------------------------------------------------|
g|--10-10-10-10-7/9-10-12~-12^(14)-10h12p10~~-----------------------|
d|------------------------------------------------------------------|
a|------------------------------------------------------------------|
E|------------------------------------------------------------------|

2xVERSE:
Gm 5x 2x 2x
e|--------------6---------------------------------------------------|
h|-----3---------8-------1--------7-------7--5--4-------------------|
g|------3------8--8-8-----2------7-7-----7-7--4--4------------------|
d|----5--5-5--8----8----3--3-3--7---7-7-7---7--4--------------------|
a|---5----5--6---------3----3--5-----5-5----------------------------|
E|--3-----------------1---------------------------------------------|

BRIDGE:

e|----------------------0---------------------------3---------------|
h|----3------------------1----------------3---------3---------------|
g|---3-3-------2-------0--0-0----0--2----3-3-------0-0-0------------|
d|--3---3-3---3-3-----2----2----0--2-2--3---3-3---0---0-------------|
a|-1-----1---3---3-3-3---------2--0----1-----1---2------------------|
E|----------1-----1-----------3-----------------3-------------------|
3x
e|------------------------|
h|----2--2--3---5---------|
g|---2-2--2--2-2-2-2------|
d|--2---2-----2---2-------|
a|-0----------------------|
E|------------------------|

CHORUS:

e|-1---1-------0-------0------------1---1-------0-------0-------0---|
h|--3---3-3---1-1-1---3-3-3-------1--3---3-3---1-1-1---3-3-3---1-1-1|
g|---2---2---2---2---3---3----2--0----2---2---2---2---3---3---0---0-|
d|-0--0-----2-------3--------3--2---0--0-----2-------3-------2------|
a|---------0-------1--------3--3------------0-------1-------3-------|
E|-------------------------1----------------------------------------|

2xVERSE
BRIDGE

2xCHORUS ( distorted ) :

d a a# f/c d a a# c

C-Part

e/c g g/a a# c g ( c/d ) g/a a# c e ( d/e ) g/a a# c g ( c/d ) g/a a# c d

"SOLO"

a# g a a# c a g~~
e|------------------------------------------------------------------|
h|----11-11-10-------------13-15-13~~-13b14~~-10-10b11~~-8~~--------|
g|-------------10-12-14-15------------------------------------------|
d|------------------------------------------------------------------|
a|------------------------------------------------------------------|
E|------------------------------------------------------------------|

2xVERSE

BRIDGE ( distorted ):

a# f c g/a a# g a

2xCHORUS ( distorted )

BREAK:

g a a# c# d e

CHORUS till ending


in fact I guess they tuned all guitars full step down but played everything in d.
that means e.g. they played an a instead of an g in the verse but it sounded the same.
don't mind you can play it this way!!


tabbed by looser

OptimusPrime

Toegevoegd door OptimusPrime op do 14 aug, 2003 5:21 pm

Auteur: Jesper Strömblad, Joacim Cans, Oscar Dronjak
Componist: Jesper Strömblad, Joacim Cans, Oscar Dronjak
Uitgever: Nuclear Blast
Uitgegeven in: 1999
Taal: Engels
Beschikbaar op: Glory to the Brave (1997), One Crimson Night (2003)

Reacties

CommonCrawl [Bot]

Volg Muzikum