The Eagles

The Eagles
Lying Eyes (Guitar tab)

lyin eyes by the eagles
these tabs are correct

here is the intro while this is going on play G Gmaj7 C Am D then its
G Gmaj7 C Am C G
e---------------------------------------------------------------------
b--8---7-----7h8-7p5-5------------------------------------------------
g------------------------4--2---------2--4----------2--4^---4^--2--0--
d-----------------------------5---2---------2----5--------------------
a---------------------------------------------------------------------
e---------------------------------------------------------------------

e---------------------------------------------------------------------
b---------------------------------------------------------------------
g----0-----7h9p7----5h7p5-------4h5p4--------3--2--0------------------
d--4------------------------------------------------------------------
a---------------------------------------------------------------------
e---------------------------------------------------------------------

this little intro thingy is used in other parts of the song
the verse is the same chords as the intro

the chorus is

G C G Em Bm Am D G Gmaj7 A D G

chord diagram
e a d g b e
g 3 2 0 0 3 3
gmaj7 3 x 0 0 0 2
c 3 2 0 1
d 0 2 3 2
em 0 2 2 0 0 0
bm 4 3 2
a 0 2 2 2 0
am 0 2 2 1 0


if you have any questons email me at musician_75@yahoo.com

OptimusPrime

Toegevoegd door OptimusPrime op zo 01 dec, 2002 9:46 am

Auteur: ?
Componist: ?
Uitgever: ?
Taal: Engels

Reacties

CommonCrawl [Bot]

Volg Muzikum