The Eagles

The Eagles
Lyin Eyes Ver 2 (Guitar tab)

Song: Lyin' Eyes
Artist: Eagles
Tabbed by: jrulez JWL89@aol.com

Believe me, this is correct!

INTRO:
E/-3-2-2H3P-2------------------------------------------------/
B/-----------------------------------------------------------/
G/-----------4-2-0-2-4---------------------------------------/
D/---------------------2-------------------------------------/
A/-----------------------------------------------------------/
E/-----------------------------------------------------------/

E/-----------------------------------------------------------/
B/--------------3/5\3-1/3\1----------------------------------/
G/--0-4-4-2-0-0-------------4/5\4-3-2-0----------------------/
D/-2---------4-----------------------------------------------/
A/-----------------------------------------------------------/
E/-----------------------------------------------------------/

==============================================================
TABLATURE INFORMATION
==============================================================
/ = SLIDE UP --2H3-- = HAMMERON
\ = SLIDE DOWN --3P2-- = PULLOFF
==============================================================

OptimusPrime

Toegevoegd door OptimusPrime op zo 01 dec, 2002 9:46 am

Auteur: ?
Componist: ?
Uitgever: ?
Taal: Engels

Reacties

CommonCrawl [Bot]

Volg Muzikum