The Eagles

The Eagles
Hotel California Ver 4 (Guitar tab)

this is probably the most correct tab of this song for this part its pretty eassy to pla so have fun$
bm f# A E G
e:---2---2---2-------2--2--2----0--0--0----0--0--0----------3-----:
A:---3----3---3------2---2------2---2------0---0------------0-----:
D:---4-----4---4-----3----3-----2----2-----1----1-----------0-----:
G:---4---------------4----------2----------2----------------0-----:
B:---0---------------0----------0----------2----------------2-----:
E:---0---------------0----------0----------0---------0-2-3--3-----:
D Em f#
e:-3--3------2---2--2h3-------0--0---0-------2--2--2--------------:
A:--0--0-----3----3----3------0---0---0------2---2----------------:
D:---0--0----2-----2----------0----0---0-----3----3---------------:
G:-----------0----------------2--------------4--------------------:
B:-----------0----------------2--------------0--------------------:
E:-----------0----------------0--------------0--------------------:

OptimusPrime

Toegevoegd door OptimusPrime op zo 01 dec, 2002 9:46 am

Auteur: ?
Componist: ?
Uitgever: ?
Taal: Engels

Reacties

CommonCrawl [Bot]

Volg Muzikum