The Eagles

The Eagles
Victim Of Love (Bass tab)

BASSLINE FOR VICTIM OF LOVE
As recorded by Eagles
(From the 1982 LP recording GREATEST HITS VOL 2)

Words and Music by D.Felder, D.Henley,
J.D.Souther & G.Frey
Transcribed by Michael Raisey
gemini67@globalfreeway.com.au

1. 2.
||-----------|-------------|----------|------------||-------||
||o----------|-------------|----------|-----------o||-------||
||o----------|-----3---3---|----------|-1----0----o||-------||
||--3--------|-------------|-3--------|------------||-------||


||------------|------------|-----------|---------|----------|------------|------------|----|
||o-----------|------------|-----------|---------|----------|------------|------------|----|
||o-----------|------3--3--|-----------|-1----0--|----------|------3--3--|------3--3--|----|
||--3----3----|-3----------|-3----3----|---------|-3----3---|-3----------|-3----------|-3--|
Verse

$
|-----------|------------|-----------|---------|-----------|------------|------------|
|-----------|------------|-----------|---------|-----------|------------|------------|
|-----------|------3--3--|-----------|-1----0--|-----------|------3--3--|------3--3--|
|-3----3----|-3----------|-3----3----|---------|-3----3----|-3----------|-3----------|



|-----------------|-------------|-------------|---------------|-----------------|
|-----------------|-------------|-------------|---------------|-----------------|
|------------0-0--|-1---1-1--0--|-------------|-3---3-3---(3)-|-1----------0-0--|
|-3--1-1-3-3------|-------------|-3----3-3----|---------------|----1-1-3-3------|
CHORUS


1.
To Coda
|-------------|-------------|-------------------|--------|-------||
|-------------|-------------|-1---1-3---3-------|-5------|-(5)--o||
|-1---1-1--0--|-------------|-------------------|--------|------o||
|-------------|-3----3-3----|-------------------|--------|-------||


2.
D.S. al Coda &
|---------|-------------------||----------------||-------------|-------------|
|-5-------|-(5)---------------||-5--------------||-------------|-------------|
|---------|-------------------||------------0-0-||-1---1-1--0--|-------------|
|---------|-------------------||----1-1-3-3-----||-------------|-3----3-3----|


|---------------|----------------|-------------|-------------|
|---------------|----------------|-------------|-------------|
|-3---3-3---(3)-|-1----------0-0-|-1---1-1--0--|-------------|
|---------------|----1-1-3-3-----|-------------|-3----3-3----|



1. , 2. 3.
||--------------|-----------||-------*|
||o-1--1--3--3--|----------o||-------*|
||o-------------|----------o||-------*|
||--------------|-3---------||-3-----*|


--------------------------------------------------------------------------------
Legend
------

h = hammer-on | = bar
p = pull-off || = double bar
b = bend ||* = repeat start
r = bend release *|| = repeat end
/ = slide up/down *| = double bar (end)
[5] = nat. harmonic ! = repeat beat (�,8th)
= art. harmonic !! = repeat beat (16th)
~ = vibrato % = repeat measure
tr = trill : = bar (freetime)
T = tap du = tremolo bar dip
TP = trem. picking d = tremolo bar down
PM = palm muting u = tremolo bar up
S = slap ud = tremolo bar inverted dip
P = pop = = hold (bend or tremolo bar)
--------------------------------------------------------------------------------

******************************************************************************************
* This file was generated with Power Tab Editor - Get it at http://home.tct.net/~blarsen *
******************************************************************************************

OptimusPrime

Toegevoegd door OptimusPrime op zo 01 dec, 2002 9:46 am

Auteur: ?
Componist: ?
Uitgever: ?
Taal: Engels

Reacties

CommonCrawl [Bot]

Volg Muzikum