The Eagles

The Eagles
Heartache Tonight (Bass tab)

THE EAGLES - "Heartache Tonight" - Bass Tab

Common Time(4/4)
Standard Tuning(EADG)

INTRO:
(x3)
|---------------|---------|-----------|
|---------------|---------|*---------*|
|-1-------3-----|-.-------|*-r-e-s-t-*|
|---1---1-----1-|-3-r-r-r-|-----------|
1 & 2 3 & 4 & 1 2 3 4 1 2 3 4

VERSE 1:
(x7) (x2)
|-----------|-----------|----------|------------|----------|
|*---------*|-----------|*---------|-----------*|----------|
|*-r-e-s-t-*|-----------|*---------|-----------*|--------2-|
|-----------|-r-r-r-r-1-|--3-------|-0-------1--|-3--------|
1 2 3 4 1 2 3 4 & 1 2 3 4 1 2 3 4 & 1 2 3 4 &

|-------------|-----------|---------|---------|
|-------------|-----------|---------|---------|
|-3-----------|---------3-|-5-------|-5-5-5-5-|
|-----0-----1-|-3---------|---------|---------|
1 2 & 3 4 & 1 2 3 4 & 1 2 3 4 1 2 3 4

1ST CHORUS:
|-------.---.-.---.-.-.-|-----------------------|
|-.---.-2---2-5---5-2-2-|-.---.-----------------|
|-3---3-----------------|-3---3-.---.-.---.-.-.-|
|-----------------------|-------0---0-1---1-2-2-|
1 & a 2 & a 3 & a 4 & 1 & a 2 & a 3 & a 4 &

|-------------------------|-------------------------|
|-------------------------|-------.---.-.---.-.---.-|
|-.---.-.---.-.---.-.---.-|-.---.-0---0-1---1-2---2-|
|-3---3-3---3-3---3-3---3-|-3---3-------------------|
1 & a 2 & a 3 & a 4 & a 1 & a 2 & a 3 & a 4 & a

|-------------------------|-------------------------|
|-.---.-.---.-.---.-.---.-|-.---.-.---.-.---.-.---.-|
|-3---3-3---3-3---3-3---3-|-3---3-3---3-3---3-2---2-|
|-------------------------|-------------------------|
1 & a 2 & a 3 & a 4 & a 1 & a 2 & a 3 & a 4 & a

|-------------------------|-------------------------|
|-.---.-.---.-.---.-.---.-|-.---.-.---.-.---.-.---.-|
|-0---0-2---2-3---3-4---4-|-5---5-3---3-2---2-0---0-|
|-------------------------|-------------------------|
1 & a 2 & a 3 & a 4 & a 1 & a 2 & a 3 & a 4 & a

VERSE 2:
|--------------------------|-------------------------|
|*-------------------------|-------------------------|
|*-.---.-.---.-.---.-.---.-|-.---.-.---.-.---.-.---.-|
|--3---3-3---3-3---3-3---3-|-0---0-0---0-0---0-0---0-|
1 & a 2 & a 3 & a 4 & a 1 & a 2 & a 3 & a 4 & a

|-------------------------|-------------------------|
|-------------------------|-------------------------|
|-.---.-.---.-.---.-.---.-|-.---.-.---.-.---.-.---.-|
|-3---3-3---3-3---3-3---3-|-0---0-0---0-0---0-0---0-|
1 & a 2 & a 3 & a 4 & a 1 & a 2 & a 3 & a 4 & a

|-------------------------|-------------------------|
|-----------------------.-|-.---.-.---.-.---.-.-----|
|-.---.-.---.-.---.-.---2-|-3---3-3---3-3---3-2---.-|
|-3---3-3---3-3---3-3-----|-----------------------1-|
1 & a 2 & a 3 & a 4 & a 1 & a 2 & a 3 & a 4 & a

|-------------------------|-------------------------|
|-----------------------.-|-.---.-.---.-.---.-.---.-|
|-.---.-.---.-.---.-.---3-|-5---5-5---5-5---5-5---5-|
|-3---3-3---3-3---3-3-----|-------------------------|
1 & a 2 & a 3 & a 4 & a 1 & a 2 & a 3 & a 4 & a

|-3-|
|--------------------------|
|-.---.-.---.-.---.-------*|
|-5---5-5---5-5---5-5-2---*| (x2)
|-----------------------5--|
1 & a 2 & a 3 & a 4 e &

2ND CHORUS:
|-------.---.-.---.-.-.-|-----------------------|
|-.---.-2---2-5---5-2-2-|-.---.-----------------|
|-3---3-----------------|-3---3-.---.-.---.-.-.-|
|-----------------------|-------0---0-1---1-2-2-|
1 & a 2 & a 3 & a 4 & 1 & a 2 & a 3 & a 4 &

|-------------------------|-------------------------|
|-------------------------|-------.---.-.---.-.---.-|
|-.---.-.---.-.---.-.---.-|-.---.-0---0-1---1-2---2-|
|-3---3-3---3-3---3-3---3-|-3---3-------------------|
1 & a 2 & a 3 & a 4 & a 1 & a 2 & a 3 & a 4 & a

|-------------------------|-------------------------|
|-.---.-.---.-.---.-.---.-|-.---.-.---.-.---.-.---.-|
|-3---3-3---3-3---3-3---3-|-3---3-3---3-3---3-2---2-|
|-------------------------|-------------------------|
1 & a 2 & a 3 & a 4 & a 1 & a 2 & a 3 & a 4 & a

|-------------------------|-------.---.-.---.-.---.-|
|-.---.-.---.-.---.-.---.-|-.---.-2---2-3---3-4---4-|
|-0---0-2---2-3---3-4---4-|-5---5-------------------|
|-------------------------|-------------------------|
1 & a 2 & a 3 & a 4 & a 1 & a 2 & a 3 & a 4 & a

|-3-|
|-.---.-.---.-.---.-.---.-|-.---.-.---.-.---.-------|
|-5---5-5---5-5---5-5---5-|-5---5-5---5-5---5-5-2---|
|-------------------------|-----------------------5-|
|-------------------------|-------------------------|
1 & a 2 & a 3 & a 4 & a 1 & a 2 & a 3 & a 4 e &

|-------------------------|-------------------6-|
|-.---.-.---.-.---.-.---.-|-.---.-.---.-.---.---|
|-3---3-3---3-3---3-3---3-|-4---4-4---4-4---4---|
|-------------------------|---------------------|
1 & a 2 & a 3 & a 4 & a 1 & a 2 & a 3 & a 4

|-------------------------|-------------------------|
|-------.---.-.---.-.---.-|-.---.-.---.-.---.-.---.-|
|-.---.-2---2-3---3-4---4-|-5---5-3---3-2---2-0---0-|
|-3---3-------------------|-------------------------|
1 & a 2 & a 3 & a 4 & a 1 & a 2 & a 3 & a 4 & a

|-------------------------|---------------------|
|-------------------------|---------------------|
|-.---.-.---.-.---.-.---.-|-.---.-.---.-.---.-.-|
|-3---3-3---3-3---3-3---3-|-3---3-3---3-3---3-3-|
1 & a 2 & a 3 & a 4 & a 1 & a 2 & a 3 & a 4

SOLO:
(x3)
|----------------|--------------------------|
|*---------------|-------------------------*|
|*-1-------3-----|-.---.-.---.-.---.-.---.-*|
|----1---1-----1-|-3---3-3---3-3---3-3---3--|
1 & 2 3 & 4 & 1 & a 2 & a 3 & a 4 & a

(x3)
|---------------|---------|-----------|
|---------------|---------|*---------*|
|-1-------3-----|-.-------|*-r-e-s-t-*|
|---1---1-----1-|-3-r-r-r-|-----------|
1 & 2 3 & 4 & 1 2 3 4 1 2 3 4

VERSE 3:
(x7) (x2)
|-----------|-----------|----------|------------|----------|
|*---------*|-----------|*---------|-----------*|----------|
|*-r-e-s-t-*|-----------|*---------|-----------*|--------2-|
|-----------|-r-r-r-r-1-|--3-------|-0-------1--|-3--------|
1 2 3 4 1 2 3 4 & 1 2 3 4 1 2 3 4 & 1 2 3 4 &

|-------------|-----------|---------|--------------|
|-------------|-----------|---------|--------------|
|-3-----------|---------3-|-5---5---|-5-5/17-17-17-|
|-----0-----1-|-3---------|---------|--------------|
1 2 & 3 4 & 1 2 3 4 & 1 2 3 4 1 2 3 & 4

3RD CHORUS:
|-------.---.-.---.-.-.-|-----------------------|
|-.---.-2---2-5---5-2-2-|-.---.-----------------|
|-3---3-----------------|-3---3-.---.-.---.-.-.-|
|-----------------------|-------0---0-1---1-2-2-|
1 & a 2 & a 3 & a 4 & 1 & a 2 & a 3 & a 4 &

|-------------------------|-------------------------|
|-------------------------|-------.---.-.---.-.---.-|
|-.---.-.---.-.---.-.---.-|-.---.-0---0-1---1-2---2-|
|-3---3-3---3-3---3-3---3-|-3---3-------------------|
1 & a 2 & a 3 & a 4 & a 1 & a 2 & a 3 & a 4 & a

|-------------------------|-------------------------|
|-.---.-.---.-.---.-.---.-|-.---.-.---.-.---.-.---.-|
|-3---3-3---3-3---3-3---3-|-3---3-3---3-3---3-2---2-|
|-------------------------|-------------------------|
1 & a 2 & a 3 & a 4 & a 1 & a 2 & a 3 & a 4 & a

|-------------------------|-------.---.-.---.-.---.-|
|-.---.-.---.-.---.-.---.-|-.---.-2---2-3---3-4---4-|
|-0---0-2---2-3---3-4---4-|-5---5-------------------|
|-------------------------|-------------------------|
1 & a 2 & a 3 & a 4 & a 1 & a 2 & a 3 & a 4 & a

|-3-|
|-.---.-.---.-.---.-.---.-|-.---.-.---.-.---.-------|
|-5---5-5---5-5---5-5---5-|-5---5-5---5-5---5-5-2---|
|-------------------------|-----------------------5-|
|-------------------------|-------------------------|
1 & a 2 & a 3 & a 4 & a 1 & a 2 & a 3 & a 4 e &

|-------------------------|-------------------6-|
|-.---.-.---.-.---.-.---.-|-.---.-.---.-.---.---|
|-3---3-3---3-3---3-3---3-|-4---4-4---4-4---4---|
|-------------------------|---------------------|
1 & a 2 & a 3 & a 4 & a 1 & a 2 & a 3 & a 4

|-------------------------|-------------------------|
|-------.---.-.---.-.---.-|-.---.-.---.-.---.-.---.-|
|-.---.-2---2-3---3-4---4-|-5---5-3---3-2---2-0---0-|
|-3---3-------------------|-------------------------|
1 & a 2 & a 3 & a 4 & a 1 & a 2 & a 3 & a 4 & a

|-----------------------|-------------------|
|-------.---.-.---.-.-.-|-------------------|
|-.---.-0---0-1---1-2-2-|-r-3-3-3-3-3-3---.-|
|-3---3-----------------|-----------------1-|
1 & a 2 & a 3 & a 4 & 1 & 2 & 3 & 4 & a

|-------------------------|-------------------------|
|-------.---.-.---.-.---.-|-.---.-.---.-.---.-.---.-|
|-.---.-2---2-3---3-4---4-|-5---5-3---3-2---2-0---0-|
|-3---3-------------------|-------------------------|
1 & a 2 & a 3 & a 4 & a 1 & a 2 & a 3 & a 4 & a

|-------------------------|----------------------|
|-------------------------|----------------------|
|-.---.-.---.-.---.-.---.-|-.---.-.---.-.---3/15-|
|-3---3-3---3-3---3-3---3-|-3---3-3---3-3--------|
1 & a 2 & a 3 & a 4 & a 1 & a 2 & a 3 & a 4

END:
(x3)
|----------------|--------------------------|
|*---------------|-------------------------*|
|*-1-------3-----|-.---.-.---.-.---.-.---.-*|
|----1---1-----1-|-3---3-3---3-3---3-3---3--|
1 & 2 3 & 4 & 1 & a 2 & a 3 & a 4 & a

|-------------|---------|---------|
|-------------|---------|---------|
|-1-------3---|---------|---------|
|---1---1-----|-3-------|---------|
1 & 2 3 & 4 1 2 3 4 1 2 3 4

By: Johari Taylor
E-mail: viking@powerup.com.au
More Bass Tabs: http://www.powerup.com.au/~viking/basstab.htm

OptimusPrime

Toegevoegd door OptimusPrime op zo 01 dec, 2002 9:46 am

Auteur: ?
Componist: ?
Uitgever: ?
Taal: Engels

Reacties

CommonCrawl [Bot]

Volg Muzikum