Iron Maiden

Iron Maiden
Run To The Hills Ver 8 (Guitar tab)

band: iron maiden
album: number of the beast
song: run to the hills

starts with

-------------------------------------------------------------------
-------------------------------------------------------------------
--9--9--7---7--7---9---5--5---7---0--0--2--------------------------
--9--9--7---7--7---9---5--5---7---0--0--2--------------------------
-------------------------------------------------------------------
-------------------------------------------------------------------
white man came/ he crossed the sea/ he brought his main/ for myssery......
............

and then
verse:
------------------------------------------------------------
------------------------------------------------------------
------------------------------------------------------------
---7-7-7-7-7-7-7-7-7-7-7-5-5-5-5-5-5-5-5--5--5--5--5--------
---5-5-5-5-5-5-5-5-5-5-5-3-3-3-3-3-3-3-3--3--2--3--2--------
------------------------------------------------------------

followd by

chorus:

------------------------------------------------------------
------------------------------------------------------------
------------------------------------------------------------
---5----3---5---5-------------------------------------------
---5----3---3---5-------------------------------------------
------------------------------------------------------------
run to the hills/ run for your life

then play this two last riffs again
then follows the solo

-----12-------------------------------------------------------------------------
--15-----15-12-15-12-15-12-15-12-15-12------------------------------------------
---------------------------------------14-12-14-12-14-12-14-12------------------
---------------------------------------------------------------14-12-14-12-14-12
--------------------------------------------------------------------------------
--------------------------------------------------------------------------------
on string four you slide and vibrate.

------------------------------------15-12--15-12---15-12-15-12-15-12-15-12-15-12
-------------------15-12---15-12---------14-----14------------------------------
--14-12---14-12---------14------14----------------------------------------------
-------14------14---------------------------------------------------------------
--------------------------------------------------------------------------------
--------------------------------------------------------------------------------
vibrate on the first string

--------------------------------------------------------------------------------
-15-12-15-12-15-12-15-12-15-12--------------------------------------------------
------------------------------14-12-14-12-14-12-14-12-14-12---------------------
-----------------------------------------------------------14-12-14-12-14-12-14-
--------------------------------------------------------------------------------
--------------------------------------------------------------------------------

---17--------------------------------------------------
-------15---17-----------------------------------------
-----------------14---16----------2--4--5--7-----------
--------------------------14------2--4--5--7-----------
-------------------------------------------------------
-------------------------------------------------------

after this play the verse and the chorus again.
hope you like it.

OptimusPrime

Toegevoegd door OptimusPrime op zo 05 maart, 2006 5:19 pm

Auteur: ?
Componist: ?
Uitgever: ?
Taal: Engels

Reacties

CommonCrawl [Bot]

Volg Muzikum