Iron Maiden

Iron Maiden
The Wicker Man (rock In Rio) (Guitar tab)

The Wicker man
Iron maiden
Rock in Rio
Transcribed by / tablatura por Nicolas Espoz

Mono mono_uhhhh@hotmail.com CHILE Monkey16


1 Guitar / Guitarra 0:00

E|-------------------------------------------------------------------------------------------------|
B|-------------------------------------------------------------------------------------------------|
G|-------------------------------------------------------------------------------------------------|
D|-----9-9--------------9-9-------------9-9---------------5-5----12-12--) play 8 times this--------|
A|-----7-7--------------7-7-------------7-7---------------3-3----10-10--) toca 8 veces esto--------|
E|--0-------0-0-0-0-0-------0-0-0-0-0-------0-0-0-0-0-------------------)--------------------------|

2 Guitar / Guitarra 0:05

E|----7---7---------7---7-----------7---7---------3----3-----10---10---)---------------------------|
B|----7---7---------7---7-----------7---7---------3----3-----10---10---) play 7 times this---------|
G|----9---9---------9---9-----------9---9---------5----5-----12---12---)-toca 7 veces esto---------|
D|----9---9---------9---9-----------9---9---------5----5-----12---12---)---------------------------|
A|----7---7---------7---7-----------7---7---------3----3-----10---10---)---------------------------|
E|----7---7---------7---7-----------7---7---------3----3-----10---10---)---------------------------|

1 Guitar / Guitarra 0:30
E|-------------------------------------------------------------------------------------------------|
B|-------------------------------------------------------------------------------------------------|
G|-------------------------------------------------------------------------------------------------|
D|--7---------5------12--12--12--11--9--7-----------5----------5--5----7------5-----12--12--12-----|
A|--5---------3------10--10--10--9---7--5-----------3----5--5--3--3----5------3-----10--10--10-----|
E|-------------------------------------------------------3--3--------------------------------------|

E|-------------------------------|
B|-------------------------------|
G|-------------------------------|
D|--11--9--7-------5-------7-----|
A|---9--7--5-------3---5---5-----|
E|---------------------3---------|

2 Guitar / Guitarra 0:30
E|--5----------3-------10--10--10--9---7--5-----------3----3--3--3--3----5------3-----10--10--10---|
B|--5----------3-------10--10--10--9---7--5-----------3----3--3--3--3----5------3-----10--10--10---|
G|--7----------5-------12--12--12--11--9--7-----------5----4--4--5--5----7------5-----12--12--12---|
D|--7----------5-------12--12--12--11--9--7-----------5----5--5--5--5----7------5-----12--12--12---|
A|--5----------3-------10--10--10--9---7--5-----------3----5--5--3--3----5------3-----10--10--10---|
E|--5----------3-------10--10--10--9---7--5-----------3----3--3--3--3----5------3-----10--10--10---|




E|--9---7--5-----3----3---5--|
B|--9---7--5-----3----3---5--|
G|-11---9--7-----5----4---7--|
D|-11---9--7-----5----5---7--|
A|--9---7--5-----3----5---5--|
E|--9---7--5-----3----3---5--|

Chorus / Coro: 0:58
1 guitar / guitarra
E|-------------------------------------------------------------------------------------------------|
B|-------------------------------------------------------------------------------------------------|
G|-------------------------------------------------------------------------------------------------|
D|-(9-9-9-9-9-----5-5-5-5-5----------------7-7-7-7-7-----9-9-9-9-9---12-12-12-12-12----------------|
A|-(7-7-7-7-7-----3-3-3-3-3----5-5-5-5-5---5-5-5-5-5-----7-7-7-7-7---10-10-10-10-10----------------|
E|-(---------------------------3-3-3-3-3-----------------------------------------------------------|

E|-------------------------------------------------------------------------------------------------|
B|-------------------------------------------------------------------------------------------------|
G|-------------------------------------------------------------------------------------------------|
D|--5-5-5-5-5-------------------)------------------------------------------------------------------|
A|--3-3-3-3-3----5-5-5---7-7-7--)--2 Times --------------------------------------------------------|
E|---------------3-3-3---5-5-5--)--2 Veces---------------------------------------------------------|

Chorus / Coro:
2 Guitar / Guitarra

E|-------------------------------------------------------------------------------------------------|
B|--12----12-----12----------12-----12-----12---------12-----12-----12--------12-----12-13-12------|
G|-----14-----14-----12----------14-----14-----12---------14-----14-----12--------14------------12-|
D|------------------------------------------------------------------- play this 4 times -----------|
A|------------------------------------------------------------------- toca esto 4 veces -----------|
E|-------------------------------------------------------------------------------------------------|


Play other time the verse and the chorus
Toca otra vez la estrofa y el coro

Solo Easy / F�cil:
1 Guitar /Guitarra 2:13
E|-------------------------------------------------------------------------------------------------|
B|-------------------------------------------------------------------------------------------------|
G|-------------------------------------------------------------------------------------------------|
D|--------------------------7-------7--9-----7-9-10-9-7--------------------------------------------|
A|--7v--7-9-10-7v---7-9-10----9-10-------10---------------10-7v--7-9-10-7b0------------------------|
E|-------------------------------------------------------------------------------------------------|



E|--0-0-12-10--0-0-14-12--0-0-15-14--0-0-17-15----|------------------------------------------------|
B|------------------------------------------------|------------------------------------------------|
G|------------------------------------------------|------------------------------------------------|
D|------------------------------------------------|-----------------------------7-------7----------|
A|------------------------------------------------|----7v---7-9-10-7v----7-9-10---9-10-------------|
E|------------------------------------------------|------------------------------------------------|

E|-----------------------------------------------0-0-12-10--0-0-14-12--0-0-15-14--0-0-17-15--------|
B|-------------------------------------------------------------------------------------------------|
G|-------------------------------------------------------------------------------------------------|
D|---------7-9-10-9-7------------------------------------------------------------------------------|
A|---9-10--------------10-7v---7-9-10-7b0----------------------------------------------------------|
E|-------------------------------------------------------------------------------------------------|

Solo Hard / Dif�cil: 2:31
E|-----------------8p7-------7-5-7---7-5-7----7-5-7---7-5-7--------------|--6/--5---5--------------|
B|-10/-10/--10/-------10p8---------8--------8-------8--------5----3b5b4--|--------7---7----7-5-3---|
G|-very high----------------------------------------------------4--------|-----------------------4-|
D|-----------------------------------------------------------------------|-------------------------|
A|-----------------------------------------------------------------------|-------------------------|
E|-----------------------------------------------------------------------|-------------------------|

E|---------------------------------------------|2h------------2h----------3h-----------3h----------|
B|-5-3-----------------------------------------|---4p0h4p0h4----4p0h4p0h4----5p0h5p0h5-------------|
G|------0-0---5-4---0-0---4-2------------------|---------------------------------------------------|
D|---------------------------------5-4---------|---------------------------------------------------|
A|--------------------------------------7b14b0-|---------------------------------------------------|
E|---------------------------------------------|---------------------------------------------------|

E|------------5h------------5h-----------7h--------------7----|--------------17-19-20-19-----------|
B|--5p0h5p0h5----7p0h7p0h7-----7p0h7p07-------8p0h8p0h8-----8b|17-17-19-20-------------------------|
G|------------------------------------------------------------|------------------------------------|
D|------------------------------------------------------------|------------------------------------|
A|------------------------------------------------------------|------------------------------------|
E|------------------------------------------------------------|------------------------------------|

E|--17-----17------------------17------------------------------------------------------------------|
B|------20-----20-19-17-19-20-----20-19-17-20-19-17------------------17-19-20-19-17-----17---------|
G|-----------------------------------------------------17--17-19-20-----------------20----20-------|
D|-------------------------------------------------------------------------------------------------|
A|-------------------------------------------------------------------------------------------------|
E|-------------------------------------------------------------------------------------------------|

E|--------------------------|
B|-17-------------17-17-----|
G|-----17-19-20-------------|
D|--------------------------|
A|--------------------------|
E|--------------------------|


Solo Easy / F�cil:
1 Guitar /Guitarra 2:50
E|-------------------------------------------------------------------------------------------------|
B|-------------------------------------------------------------------------------------------------|
G|-------------------------------------------------------------------------------------------------|
D|--------------------------7--------7--------7-9-10-9-7-------------------------------------------|
A|--7v--7-9-10-7v---7-9-10----9-10-----9-10---------------10-7v--7-9-10-7b0------------------------|
E|-------------------------------------------------------------------------------------------------|

E|--0-0-12-10--0-0-14-12--0-0-15-14--0-0-17-15----|------------------------------------------------|
B|------------------------------------------------|------------------------------------------------|
G|------------------------------------------------|------------------------------------------------|
D|------------------------------------------------|-----------------------------7-------7----------|
A|------------------------------------------------|----7v---7-9-10-7v----7-9-10---9-10-------------|
E|------------------------------------------------|------------------------------------------------|

E|---------------------------------------------0-0-12-10--0-0-14-12--0-0-15-14--0-0-17-15----------|
B|-------------------------------------------------------------------------------------------------|
G|-------------------------------------------------------------------------------------------------|
D|---9-----7-9-10-9-7------------------------------------------------------------------------------|
A|-----10---------------10-7v---7-9-10-7b0---------------------------------------------------------|
E|-------------------------------------------------------------------------------------------------|

Solo Easy / F�cil
2 Guitar / Guitarra 2:13

E|-------------------------------------------------------------------------------------------------|
B|-------------------------------------------------------------------------------------------------|
G|-----------------------------7-------)--play 4 times this----------------------------------------|
D|---9--9----9--9-----5--5-----5--7----)--toca 4 veces esto----------------------------------------|
A|---7--7----7--7-----3--3--------5----)-----------------------------------------------------------|
E|-------------------------------------------------------------------------------------------------|

Solo Hard / Dif�cil 2:31

E|-------------------------------------------------------------------------------------------------|
B|-------------------------------------------------------------------------------------------------|
G|-------------------------------------------------------------------------------------------------|
D|-------------------------------------------------------------------------------------------------|
A|---9-9-9-9-9---7-7-7-7-7---5-5-5-5-5---7-7-7-7-7---9-9-9-9-9---7-7-7-7-7---5-5-5-5-5-------------|
E|---7-7-7-7-7---5-5-5-5-5---3-3-3-3-3---5-5-5-5-5---7-7-7-7-7---5-5-5-5-5---3-3-3-3-3-------------|

E|-------------------------------------------------------------------------------------------------|
B|-------------------------------------------------------------------------------------------------|
G|-------------------------------------------------------------------------------------------------|
D|-------------------------------------------------------------------------------------------------|
A|--10-10-10-10-10--)-play 2 times this------------------------------------------------------------|
E|--8--8--8--8--8---)-toca 2 veces esto------------------------------------------------------------|

Solo Easy / F�cil
2 Guitar / Guitarra 2:50

E|-------------------------------------------------------------------------------------------------|
B|-------------------------------------------------------------------------------------------------|
G|-----------------------------7-------)--play 4 times this----------------------------------------|
D|---9--9----9--9-----5--5-----5--7----)--toca 4 veces esto----------------------------------------|
A|---7--7----7--7-----3--3--------5----)-----------------------------------------------------------|
E|-------------------------------------------------------------------------------------------------|

Finish / Final
1 Guitar / Guitarra
E|-------------------------------------------------------------------------------------------------|
B|-------------------------------------------------------------------------------------------------|
G|-------------------------------------------------------------------------------------------------|
D|-----------5-------------------7---)--play 4 times this------------------------------------------|
A|---2-------3--------5----------5---)--toca 4 veces esto------------------------------------------|
E|---0----------------3--------------)-------------------------------------------------------------|


2 Guitar / Guitarra
E|----0-------3-------3----------5-----------------------------------------------------------------|
B|----0-------3-------3----------5-----------------------------------------------------------------|
G|----0-------5-------4----------7------------2 times----------------------------------------------|
D|----2-------5-------5----------7------------2-veces----------------------------------------------|
A|----2-------3-------5----------5-----------------------------------------------------------------|
E|----0-------3-------3----------5-----------------------------------------------------------------|

2 Guitar / Guitarra before of 2 times change to this / despu�s de 2 veces cambia a esto
E|-------------------------------------------------------------------------------------------------|
B|-------------------------------------------------------------------------------------------------|
G|-------------------------------------------------------------------------------------------------|
D|-------------------------------------------------------------------------------------------------|
A|----10-9-10-10b12----10-9-10-10b12-----10-9-10-10b12----10-9-7-5---------------------------------|
E|-------------------------------------------------------------------------------------------------|

E|-------------------------------------------------------------------------------------------------|
B|-------------------------------------------------------------------------------------------------|
G|-------------------------------------------------------------------------------------------------|
D|-------------------------------------------------------------------------------------------------|
A|----10-9-10-10b12----10-9-10-10b12-----10-9-10-10b12---------------------------------------------|
E|-------------------------------------------------------------------------------------------------|

THE End
El Fin

Monkey16

Toegevoegd door Monkey16 op za 04 dec, 2004 5:06 pm

Auteur: ?
Componist: ?
Uitgever: ?
Taal: Engels

Reacties

CommonCrawl [Bot]

Volg Muzikum