Iron Maiden

Iron Maiden
Aces High Ver 8 (Guitar tab)

Iron Maiden - Aces High
Tabbed by Ruben


Intro:

Gtr. 1

E----------------| E-----------------|
B----------------| B-----------------|
G----------------| x15 G-----------------|
D----4-6-4--7-6--| D-----4--6--4-----|
A--7-------------| A--7-----------7--|
E----------------| E-----------------|

E------------------------|------------------------------|
B----------------5-5-----|---------------------5--------|
G--5--4-5-4-5-4-------5--|--5--4-5-4-5-4--7-7----7-5-4--| x4
D------------------------|------------------------------|
A------------------------|------------------------------|
E------------------------|------------------------------|

Gtr. 2

E------------------------|------------------------|
B------------------------|------------------------|
G----11----11--11--11----|------------------------| x4
D----11----11--11--11----|----12----12--12--12----|
A----9-----9---9---9-----|----12----12--12--12----|
E------------------------|----10----10--10--10----|

E-------------------------------------------------|
B-------------------------------------------------|
G---------9---------------------------------------| x4
D---------9-------------10-------------12---------|
A---------7-------------10-------------12---------|
E-----------------------8--------------10---------|

Verse:

E-------------------------------------------------| \
B-------------------------------------------------| |
G--4---6---7---9---7---6---4---7---6---2---6---2--| |
D--2---4---5---7---5---4---2---5---4---0---4---0--| |
A-------------------------------------------------| |
E-------------------------------------------------| |
| x2
E-------------------------------------------------| |
B-------------------------------------------------| |
G--4---6---7---9---7---6---4---7---6---2----------| |
D--2---4---5---7---5---4---2---5---4---0----------| |
A-------------------------------------------------| |
E-------------------------------------------------| /

E-------------------------------------------------| \
B-------------------------------------------------| |
G-------------------------------------------------| |
D--2---4---5---7---5---4---2---5---4-------4------| |
A--0---2---3---5---3---2---0---3---2---5---2---5--| |
E--------------------------------------3-------3--| |
| x2
E-------------------------------------------------| |
B-------------------------------------------------| |
G-------------------------------------------------| |
D--2---4---5---7---5---4---2---5---4--------------| |
A--0---2---3---5---3---2---0---3---2---5----------| |
E--------------------------------------3----------| /

Pre-Chorus:

E--------------------|--------------------| \
B--------------------|--------------------| |
G--------------------|--------------------| |
D--------------------|--5-----------------| |
A--5-7-7-7--7-7-7-7--|----7-7-7--7-7-7-7--| |
E--------------------|--------------------| |
|
E--------------------|--------------------| |
B--------------------|--------------------| |
G--------------------|--5p4---------------| |
D--7-----------------|------7p5h7p5p4-----| |
A----7-7-7--7-7-7-7--|----------------5---| |
E--------------------|--------------------| |
| x2
E--------------------|--------------------| |
B--------------------|--------------------| |
G--------------------|--------------------| |
D--------------------|--5-----------------| |
A--5-7-7-7--7-7-7-7--|----7-7-7--7-7-7-7--| |
E--------------------|--------------------| |
|
E--------------------|--------------------| |
B--------------------|--------------------| |
G--------------------|--5p4---------------| |
D--7-----------------|------7p5h7---------| |
A----7-7-7--7-7-7-7--|--------------------| |
E--------------------|--------------------| /

Chorus:

E---------|------------| E---------|-------------|
B---------|------------| B---------|-------------|
G---------|----5--7----| x4 G---------|----8--10----| x4
D----2----|----5--7----| D----5----|----8--10----|
A----2----|----3--5----| A----5----|----6--8-----|
E----0----|------------| E----3----|-------------|

Bridge:

E---------------------------|---------------------------|
B---------------------------|---------------------------|
G-----------------------7---|---------------------------| x4
D-----------------------7---|-----------------------7---|
A-----------------------5---|-----------------------7---|
E---5--8-8--5-5--8-7-5------|---5--8-8--5-5--8-7-3--5---|

Solo:

Gtr. 1

E---------------------------|------5--------------------------------|
B---------------------------|--5h8-----8p5---5----------------------|
G--8b--(9)--Hit many times--|--------------7---7p5h7p5--------------|
D---------------------------|----------------------------7p5h7p5----|
A---------------------------|------------------------------------7--|
E---------------------------|---------------------------------------|

E--0-8p0h7p0--8p0h7p0----8p0h7p0--8p0h7p0----8p0h7p0--8p0h7p0--5~~--|
B-------------------------------------------------------------------|
G-------------------------------------------------------------------|
D-------------------------------------------------------------------|
A-------------------------------------------------------------------|
E-------------------------------------------------------------------|

E----------------------5h8--|---------------------------------------|
B------------------5h8------|--15p12----15p14----15p12----15-15p12--|
G----------5h7p5h7----------|---------------------------------------|
D--5h7p5h7------------------|---------------------------------------|
A---------------------------|---------------------------------------|
E---------------------------|---------------------------------------|

E---------------------------------------|---------------------------|
B--15p12----15p14----15p12----15-15p12--|---12-10-8-10----8-7-8-7---|
G---------------------------------------|---------------------------|
D---------------------------------------|---------------------------|
A---------------------------------------|---------------------------|
E---------------------------------------|---------------------------|

E---------------------|---------------------------------------------|
B---5-7-8-7-----------|---------7h10-10p7---------------------------|
G-------------7p4~~---|--------------------10p9p7-------------------|
D---------------------|--9~~-----------------------9p7--------------|
A---------------------|---------------------------------9p8p7-------|
E---------------------|----------------------------------------10~--|

E--------------------------------|----------------------7~~~~-------|
B--------------------------------|--------7--10--7------------------|
G--10--9--7--10------------------|--7--9------------9---------------|
D------------------9--7----------|----------------------------------|
A------------------------9--7~~--|----------------------------------|
E--------------------------------|----------------------------------|

Gtr. 2

E-------------|-------------| E-------------|-------------|
B-------------|-------------| B-------------|-------------|
G-------------|-------5--7--| x2 G--4----------|--4----7--9--| x2
D--7----3--5--|--7----5--7--| D--4----5--7--|--4----7--9--|
A--7----3--5--|--7----3--5--| A--2----5--7--|--2----5--7--|
E--5----1--3--|--5----------| E-------3--5--|-------------|


After the Solo, you play:

- Bridge
- Verse
- Pre-Chorus
- Chorus


Then the Outro:

E------------------------|------------------------------|
B----------------5-5-----|---------------------5--------|
G--5--4-5-4-5-4-------5--|--5--4-5-4-5-4--7-7----7-5-4--| x3
D------------------------|------------------------------|
A------------------------|------------------------------|
E------------------------|------------------------------|

E------------------------|-- S - L - O - W - L -Y --|
B----------------5-5-----|-----------------------5------|
G--5--4-5-4-5-4-------5--|--5--4-5-4-5-4-7-7-7-7---7-5--|
D------------------------|------------------------------|
A------------------------|------------------------------|
E------------------------|------------------------------|

E-------------------------------------------------------|
B-----------8----5h6p5h6p5-----5--6--5------------------|
G--4h5p4--------------------7-----------4--5-------2----|
D--------------------------------------------------2----|
A--------------------------------------------------0----|
E-------------------------------------------------------|




Comments, suggestions, corrections, anything???
Mail me at drb_89@spray.no

drb

Toegevoegd door drb op za 10 apr, 2004 11:46 pm

Auteur: ?
Componist: ?
Uitgever: ?
Taal: Engels

Reacties

CommonCrawl [Bot]

Volg Muzikum