Iron Maiden

Iron Maiden
Montsegur (Guitar tab)

-------------------------------------
B -------------------------------------
G -------------------------------------
D -------------------------------------
A --------------------0h2--------------
E -0-0-0-2-0-0-3-0-0-------------------

e -------------------------------------
B -------------------------------------
G -------------------------------------
D -------------------------------------
A -------------------5-3-2~------------
E -0-0-0-2-0-0-3-0-0-------------------

e -------------------------------------
B -------------------------------------
G -------------------------------------
D -------------------------------------
A --------------------0h2--------------
E -0-0-0-2-0-0-3-0-0-------------------

e -------------------------------------
B -------------------------------------
G -------------------------------------
D -------------------------------------
A -5-5-5-3-3-3-2-5-3-2-----------------
E ---------------------5-3-------------

verse part palm muted

e -----------------------------------------------------
B -----------------------------------------------------
G -------------------------5------5--------------------
D -----2-----5------5----5------5--------5------2-ring-
A ---2-----5------5----3------3--------5------2--------
E -0-----2------3--------------------3------0----------

e -----------------------------------------------
B -----------------------------------------------
G -----------------------------------------------
D --------------5-5-5-5-7-7-9-9--9-9-9-9-9-9-7---
A -2-2-4-4-5-5--3-3-3-3-5-5-7-7--7-7-7-7-7-7-5---
E -0-0-2-2-3-3-----------------------------------

chorus 'at the gates...'

e -------------------------------------
B -12---------10--------8--------------
G ----12---------11--------9-----------
D -------14---------12--------10~------
A -------------------------------------
E -------------------------------------

e -------------------------------------
B --8--------10---------8--------------
G ----9---------11--------9------------
D ------10---------12-------10---------
A -------------------------------------
E -------------------------------------

e -------------------------------------
B -12---------10--------8--------------
G ----12---------11--------9-----------
D -------14---------12--------10~------
A -------------------------------------
E -------------------------------------

e -------------------------------------
B --8---------7------------------------
G -----9---------7---------------------
D -------10---------9---9--7--5~-------
A -------------------------------------
E -------------------------------------

e -------------------------------------
B -------------------------------------
G -9--7--5--5--7--9--------------------
D -9--7--5--5--7--9--------------------
A -7--5--3--3--5--7--------------------
E -------------------------------------

third time

e -------------------------------------
B -------------------------------------
G -9--7--5--5-------9------------------
D -9--7--5--5--5----9------------------
A -7--5--3--3--5----7------------------
E -------------3-----------------------

Verse solo 'as we kill them all'
e -------------------------------------
B -------------9-10-12-10-9~-----------
G -9-11-9-9-11-------------------------
D -------------------------------------
A -------------------------------------
E -------------------------------------

e -------------------------------------
B -----------------9-10-9--------------
G -7-7-9-7-7-9/11---------9~-----------
D -------------------------------------
A -------------------------------------
E -------------------------------------

e -------------------------------------
B -------------------------------------
G ---9------------7--------------------
D ---9--9--7------7--7--2--------------
A ---7--9--7------5--7--2--------------
E ------7--5---------5--0--------------

Under solo

e -----------------------------------------------------
B -----------------------------------------------------
G -------------------------5------5--------------------
D -----2-----5------5----5------5--------5------2-ring-
A ---2-----5------5----3------3--------5------2--------
E -0-----2------3--------------------3------0----------

e -------------------------------------------
B -------------------------------------------
G -------------------------5------7------9---
D -----2-----5------5----5------7------9-----
A ---2-----5------5----3------5------7-------
E -0-----2-----3-----------------------------

e -------------------------------------
B --12-10-8--10--8h10p8-7--8--7--------
G -------------------------------------
D --------------------------------10~--
A -------------------------------------
E -------------------------------------

e -------------------------------------
B -8-7----10-8-7--12--10--8~-----------
G -----9-------------------------------
D -------------------------------------
A -------------------------------------
E -------------------------------------

e -------------------------------------
B -------------------------------------
G -------------------------------------
D -------------------------------------
A -------------------------------------
E -------------------------------------

e -------------------------------------
B -------------------------------------
G -------------------------------------
D -------------------------------------
A -------------------------------------
E -------------------------------------

guitar 1

e -------------------------------------
B --5h7p5p3-5-7-5~--1h3p0-1-3-1~-------
G -------------------------------------
D -------------------------------------
A -------------------------------------
E -------------------------------------

e ------------------------5------------
B --5h7p5p3-5-7-5~--5-8-5---7~---------
G -------------------------------------
D -------------------------------------
A -------------------------------------
E -------------------------------------

e ------------------------------5b7r5~---------------
B -5h7p5p3-5-7-5~---5h7p5p3-5------------------------
G ---------------------------------------------------
D ---------------------------------------------------
A ---------------------------------------------------
E ---------------------------------------------------

e ------------------------5------------
B --5h7p5p3-5-7-5~--5-8-5---7~---------
G -------------------------------------
D -------------------------------------
A -------------------------------------
E -------------------------------------

guitar 2

e -----------------------------------------------------
B -------------------------------------------13b15r13~-
G --12h14p12p11-12-14-12~---12h14p12p11-12-------------
D -----------------------------------------------------
A -----------------------------------------------------
E -----------------------------------------------------

e ----------------------------------------------------------
B -------------------------------12-------15----------------
G --12h14p12p11-12-14-12~----12------12------14-------------
D ----------------------------------------------------------
A ----------------------------------------------------------
E ----------------------------------------------------------

e ---------------------------------------------
B --------------------------14-15-14-----------
G ----13-13-14-13-13-14-16------------14~------
D ---------------------------------------------
A ---------------------------------------------
E ---------------------------------------------

e --------------------------------------------
B -----------------------12--14-12------------
G --11-11-13-11-11-13-14------------13~-------
D --------------------------------------------
A --------------------------------------------
E --------------------------------------------

e -------------------------------------
B -------------------------------------
G ---9------------7--------------------
D ---9--9--7------7--7--2--------------
A ---7--9--7------5--7--2--------------
E ------7--5---------5--0--------------

e -------------------------------------
B -------------------------------------
G --9---------7------------------------
D --9-9--7----7--5---2-----------------
A --7-9--7----5--5---2-----------------
E ----7--5-------3---0-----------------

hmmm...this is close, as close a possible.

OptimusPrime

Toegevoegd door OptimusPrime op za 03 apr, 2004 9:17 am

Auteur: ?
Componist: ?
Uitgever: ?
Taal: Engels

Reacties

CommonCrawl [Bot]

Volg Muzikum