Iron Maiden

Iron Maiden
The Nomad Ver 2 (Guitar tab)

riff1
|--------------------------------------------------------|
|--------------------------------------------------------|
|--------------------------------------------------------|
|--------------------------------------------------------|
|----------7h8p7------7-----7---------7h8p7------5-----5-|
|--0-0-0-0--------0-0---0-0---0-0-0-0--------0-0---0-0---|

|--------------------------------------------------------|
|--------------------------------------------------------|
|--------------------------------------------------------|
|--------------------------------------------------------|
|----------7h8p7------7-----7---------7h8p7--------------|
|--0-0-0-0--------0-0---0-0---0-0-0-0--------0-0-8-0-0-5-|
....... ... ... ....... ... ...


|-----------------------------------------------|
|----0---0---0---0---0----------0---0---0---0---|
|--4---4---5---4---2---4------4---4---5---4---2-| 8 times with riff above
|-----------------------------------------------|
|-----------------------------------------------|
|-----------------------------------------------|
|
|----------------------------------|--------------------------------|
|--5th time------------------------|--6th time----------------------|
|----------------------------------|--------------------------------|
|------4----4---4-------4---2---2--|-----4---4---4-------4---5------|
|--2-2-2----2---2---2-2-2---0---0--|-2-2-2---2---2---2-2-2---3---7--|
|----------------------------------|-----------------------------5--|


|----------------------|
|-/12~~~~--------------|
|----------11--12--11--| x2
|----------------------|
|----------------------|
|----------------------|
|
|----------------------|
|----------------------|
|----------------------| x2
|--4-------------------|
|--2-------4---5---4---|
|----------2---3---2---|


Before 1st verse and Chorus(1,2)
|------------------------------------------------|
|--12h13p12----12~~---12h13p12----15-13-12----12-| With riff 1
|-----------14-----------------14----------14----|
|------------------------------------------------|
|------------------------------------------------|
|------------------------------------------------|

Verses

H5 F#5 A5
H5 F#5 D5


3rd,4th and 5th Chorus

E5 H5 C5 D5 fill D|-----4-5-7-7-5-4---|
E5 H5 G5 A5


This is the cool slow middle part
|------------------------------------------------------------------------|
|------------------------------------------------------------------------|
|----------11-12-11--11--12-12----11-12-----------11-12-11--11--12-12----|
|--14---14------------------------------14---14--------------------------|
|------------------------------------------------------------------------|
|------------------------------------------------------------------------|

|----------------------------------------------------------------------------|
|------------------------------------12--------------------------------------|
|-----------11-12--11-12-14--12-12------12---------11-12--11--11--12---------|
|--/14---14--------------------------------14---14-------------------14------|
|----------------------------------------------------------------------------|
|----------------------------------------------------------------------------|

|--------------------------------------------------------------------------------------|
|-----------------------------------12-------------------------------------------------|
|----------11-12--11-12-14--12-12------12---------11-12--11-12-11--12-11---------------|
|--14---14--------------------------------14---14------------------------14---12-14----|
|-----------------------------------------------------------------------------------14-|
|--------------------------------------------------------------------------------------|

__________________________4 times__________________________
| |
|---------------------------| |--------------------------|
|---------------------------| |--13-15-13-12-------------|
|-----16-16-16-14-16-16-16--| x3 |--------------14-12-11-12-|
|--14-----------------------| |--------------------------|
|---------------------------| |--------------------------|
|---------------------------| |--------------------------|

|------------------------------------------------------------------------|
|------------------------------------------------------------------------|
|----------11-12--11-12-14--12-12---11-12---------11-12--11-12-11--12----|
|--14---14--------------------------------14---14---------------------14-|
|------------------------------------------------------------------------|
|------------------------------------------------------------------------|

|-------------------------------------------------------------|
|-----------------------------------------12------------------|
|------------11-12--14-12---11-12-14---14----14--12-11--12-12-|
|--14-----14--------------------------------------------------|
|-------------------------------------------------------------|
|-------------------------------------------------------------|
_
|--12-12-12-------------------12-12-12--------------------------------| |
|-----------15-13-12-13-12-------------15-13-12-13-12----------12--13-| |
|-----------------------------------------------------14-12-14--------| |
|---------------------------------------------------------------------| |
|---------------------------------------------------------------------| |
|---------------------------------------------------------------------| |
| x2
|--12-12-12----------------------------------------| |
|-----------15-13-12-13-12----------12-13-12----12-| |
|--------------------------14-12-14----------14----| |
|--------------------------------------------------| |
|--------------------------------------------------| |
|--------------------------------------------------| _|

|----------------------------------------------------------------------------------------------|
|----------------------------------12----------------------------------------------------------|
|----------11-12--11-12-14--12-12-----12---------11-12--11-12-----16-16-14--16--16-16-16-14-16-|
|--14---14-------------------------------14---14--------------14-------------------------------|
|----------------------------------------------------------------------------------------------|
|----------------------------------------------------------------------------------------------|

__________________________4 times__________________________
| |
|---------------------------| |--------------------------|
|---------------------------| |--13-15-13-12-------------|
|-----16-16-16-14-16-16-16--| x3 |--------------14-12-11-12-|
|--14-----------------------| |--------------------------|
|---------------------------| |--------------------------|
|---------------------------| |--------------------------|

OptimusPrime

Toegevoegd door OptimusPrime op do 14 aug, 2003 5:26 pm

Auteur: ?
Componist: ?
Uitgever: ?
Taal: Engels

Reacties

CommonCrawl [Bot]

Volg Muzikum