Iron Maiden

Iron Maiden
The Clairvoyant (Bass tab)

���� ������
************************************************
Song : The Clairvoyant
Written by : Steve Harris
CD : Seventh Son of a Seventh Son (1987)
************************************************

I just want to remember you all, that I heard the song this way, if someone
else heard it in other way, well, choose the easier way fotr YOU to play...

/* Tabbed by SteveHarrisJr on MxTabs.net */

Standard Tuning

Riff1: *Don't forget to use Harris effect*
G|------------------------------------------------------|
D|-----7-----7---------5-----5--------------------------|
A|-5-5---5-5---5-5-5-5---5-5---5-5-5-5-9--555555555555--|
E|------------------------------------------------------|

Fill1: 2x 2x
G|--------------------------|---------------------------|
D|-5-5-5-5-4-0--------------|-5-5-5-5-4-0---------------|
A|-------------0-3--3333333-|-------------0-5-555555555-|
E|--------------------------|---------------------------|

Verse:
G|--------------------------------------------------|
D|--------------------------------------------------|
A|-5-55555555-3-3333333-------------1-11111-3-33333-|
E|-----------------------3-33333333-----------------|

Riff2: /- Use it only on the second time
G|--------------------------|-----------------------|
D|--------------------------|-----------------------|
A|-5-555-5-555-5-555--3-5-5-|-3-333-3-333-333-1-3-3-|
E|--------------------------|-----------------------|
"there's a time to live..."

Riff3:
G|----------------------------------------------------------|
D|-----9-----9---------7-----7-----7------------------------|
A|-7-7---7-7---7-7-7-7---7-7---7-7---7-7-7-7-11--7777777777-|
E|----------------------------------------------------------|

Fill2: 2x
G|--------------------------|----------------------------|
D|-7-7-7-7-6-0--------------|-7-7-7-7-6-0----------------|
A|-------------0-5--5555555-|-------------0-7--777777777-|
E|--------------------------|----------------------------|


This song is too complex to explain by the structure, so
the best advice that I can give is that you get the tab and
listen to the song... It'll become a lot more easy!!!

*************************

UP THE IRONS!!!!!!!!

Any problems, comment or corrections, write me!
*************************

[]'s

OptimusPrime

Toegevoegd door OptimusPrime op do 14 aug, 2003 5:26 pm

Auteur: ?
Componist: ?
Uitgever: ?
Taal: Engels

Reacties

CommonCrawl [Bot]

Volg Muzikum