Iron Maiden

Iron Maiden
Number Of The Beast Ver 4 (Guitar tab)

Band: Iron Maiden
Song: Number of the Beast
Tabber: TGrocker
*By the way this is the only good tab on the internet.*

Intro/Verse

E------------------------------------------------------------------------------------
B------------------------------------------------------------------------------------
G------------------------------------------------------------------------------------
D--------------4-----5-----7--------7--------7--------7--------7-----------4-----5---
A-----5--5--5-----5-----5-----5--5-----5--5-----5--5-----5--5-----5--5--5-----5-----5
E------------------------------------------------------------------------------------

P.M.^^^^^^^^^^^^^^^^^^^^^^^^^^^^^^^^^^^^^^^^^^^^^^^^^^^^^^^^^^^^^^^

E|-----------------------------------------------------------------------------------
B|-----------------------------------------------------------------------------------
G|-----------------------------------------------------------------------------------
D|-7--------7--------7--------7--------7----------4-----5------7-------7--------7----
A|----5--5-----5--5-----5--5-----5--5-----5--5--5----5-----5------5-------5--5----5--
E|-----------------------------------------------------------------------------------

P.M.^^^^^^^^^^^^^^^^^^^^^^^^^^^^^^^^^^^^^^^^^^^^^^^^^^^^^^^^^^^^^^^

E------------------------------------------------------------------------------------
B------------------------------------------------------------------------------------
G------------------------------------------------------------------------------------
D------7---------7--------------2-----3--------5--------5--------5-------------------
A---5-----5---5------3--3--3-------3-----3--------3--3-----3--3-----3----------------
E------------------------------------------------------------------------------------

P.M.^^^^^^^^^^^^^^^^^^^^^^^^^^^^^^^^^^^^^^^^^^^^^^^^^^^^^^^^^^^^^^^

E------------------------------------------------------------------------------------
B------------------------------------------------------------------------------------
G------------------------------------------------------------------------------------
D-----5--------5--------------2-----3--------7--------7--------7---------------------
A--3-----3--3-----3--3--3--------3-----3--------5--5-----5--5--------5---------------
E------------------------------------------------------------------------------------

P.M.^^^^^^^^^^^^^^^^^^^^^^^^^^^^^^^^^^^^^^^^^^^^^^^^^^^^^^^^^^^^^^^

(1)(2) (3)
E--------------------------------------------- E------------------------------------
B--------------------------------------------- B------------------------------------
G--------------------------------------------- G------------------7--7--7-----------
D-----7---------7--------------4-----5-------- D------7--------7--7--7--7-----------
A--5-----5--5-----5--5--5---------5-----5----- A---5-----5--5-----5--5--5-----------
E--------------------------------------------- E------------------------------------

P.M.^^^^^^^^^^^^^^^^^^^^^^^^^^^^^^^^^^^^^^^^^^ ^^^^^^^^^^^^^^^^^^

Chord hits

E------------------------------------------------------------------------
B------------------------------------------------------------------------
G--7-----7------------------------7-7-7-7---------7------7-7-7-7---------
D--7-----7------------------------7-7-7-7---------7------7-7-7-7---------
A--5-----5------------------------5-5-5-5---------5------5-5-5-5---------
E------------------------------------------------------------------------

E------------------------------------------------------------------------
B------------------------------------------------------------------------
G----5-5-5-5---5---------------------7-7-7-7---7-------------------------
D----5-5-5-5---5---------------------7-7-7-7---7-------------------------
A----3-3-3-3---3---------------------5-5-5-5---5-------------------------
E------------------------------------------------------------------------

Verse 2

E-------------------------------------------------- E-----------------------------
B-------------------------------------------------- B-----------------------------
G-7--7--7--7--------7--7--7--7--------7--7--7------ G--7--7--7--7--------7--7--7-7
D-7--7--7--7--------7--7--7--7--------7--7--7------ D--7--7--7--7--------7--7--7--
A--------------5--5--------------5--5-----------5-- A--------------5--5-----------
E-------------------------------------------------- E-----------------------------
P.M. ^^^^ ^^^^ ^ ^^^^ ^^^^
Chorus

E--------------------------------------------------------------------------
B--------------------------------------------------------------------------
G-----------------------------------------------------------------------7--
D---------------------5-------------------------5-----------------------7--
A------------3--3--3--2-------------------------3-----------------------5--
E--------------------------------------------------------------------------

E--------------------------------------------------------------------------
B--7--7--7--7--7--7--------------------------------------------------------
G--7--7--7--7--7--7--5-------------------------5------------------------5--
D--5--5--5--5--5--5--3----------------3--3--3--2------------------------3--
A--------------------------------------------------------------------------
E--------------------------------------------------------------------------

E--------------------------------------------------------------------------
B--------------------------------------------------------------------------
G------------------------7--7--7--7--------7--7--7--7--------7--7--7-------
D------------------------7--7--7--7--------7--7--7--7--------7--7--7-------
A------------------------------------5--5--------------5--5-----------5----
E--------------------------------------------------------------------------
P.M. ^^^^ ^^^^ ^

Interlude

E------------------------------------------------------------------------------------
B------------------------------------------------------------------------------------
G--2--2--2--4----2-----4--4--4--5----4-----5--5--5--7----5-----7--7--7--7--7--7--7--7
D--O--O--O--O----O-----O--O--O--O----O-----O--O--O--O----O-----O--O--O--O--O--O--O--O
A------------------------------------------------------------------------------------
E------------------------------------------------------------------------------------

Solo

E--10-H13-P10------------------------------------------------------------------------
B-----------------11---10--------------11--13^--------------------10-H11-P10---H8-P10
G------------------------------------------------------------------------------------
D------------------------------------------------------------------------------------
A------------------------------------------------------------------------------------
E------------------------------------------------------------------------------------

E--------------------------------------------------------------------------10-H12-P10
B--8--H10--P8--H10--8----6--H8--P6--H8--P6--H8--P6----5----5-------------------------
G------------------------------------------------------------------------------------
D------------------------------------------------------------------------------------
A------------------------------------------------------------------------------------
E------------------------------------------------------------------------------------

E-H12-P10-H12-P10-H12-P10-H13-P10-H13-P10-H13-P10-H13-P10-H13-P10-H12-P10-H12-P10-H12
B------------------------------------------------------------------------------------
G------------------------------------------------------------------------------------
D------------------------------------------------------------------------------------
A------------------------------------------------------------------------------------
E------------------------------------------------------------------------------------

E-P10-H12-P10-H12-P10-H12-P10-H12-P10-13---14^------------16^--13-16^~~~~~~13-16^~~~~
B------------------------------------------------------------------------------------
G------------------------------------------------------------------------------------
D------------------------------------------------------------------------------------
A------------------------------------------------------------------------------------
E------------------------------------------------------------------------------------

E-10-H13-P10---10-H13-P10/9-H10-P8-H10-P8-H10-P8-------------------------------------
B----------------------------------------------10---11-H13-P11-H13-P11-H13-10-H11-P10
G------------------------------------------------------------------------------------
D------------------------------------------------------------------------------------
A------------------------------------------------------------------------------------
E------------------------------------------------------------------------------------

E------------------------------------------------------------------------------------
B-H11-P10/8-H10-P8/6-H8-P6/5-H6-P5-----------------------------------------13-H15-P13
G-----------------------------------5--3---------------------------------------------
D-----------------------------------------5--7^--5^----------------------------------
A------------------------------------------------------------------------------------
E------------------------------------------------------------------------------------

E------------------------------------------------------------------------------------
B-15-17-H18-P17-P15-17-H18-P17-P15--18---20---20-22^-------------------22~~~~~~~~~~~~
G------------------------------------------------------------------------------------
D------------------------------------------------------------------------------------
A------------------------------------------------------------------------------------
E------------------------------------------------------------------------------------

E-------------------------------------20-22^--------------22-----20---------\--------
B--------22~~~~~~~~~~~~~~~----18-----------------------------------------------------
G------------------------------------------------------------------------------------
D------------------------------------------------------------------------------------
A------------------------------------------------------------------------------------
E------------------------------------------------------------------------------------
Break

E-------------------------------------------------------------------
B-------------------------------------------------------------------
G--------------7------5-----------------------------5---5---5---3---
D---------/5------5------7---5------5---------------5---5---5---3---
A--------------------------------7------7---6---5---3---3---3---1---
E-------------------------------------------------------------------

E------------------------------------------------------------------------------------
B------------------------------------------------------------------------------------
G--------------3-------1-------------------------------------------------------------
D---------/3-------3-------3---1-------1---------------5---5---5---3----------------3
A----------------------------------3-------3---2---1---5---5---5---3----------------3
E------------------------------------------------------3---3---3---1------------1---1

E------------------------------------------------------------------------------------
B------------------------------------------------------------------------------------
G--------------------------------------------------------------------5-----5-----7---
D-----------------------------5--------------------------------7-----5-----5-----7---
A-----------------------------5-------------------------7------7-----3-----3-----5---
E-------------------------3---3--------------3---3---3--5------5---------------------

Solo

E------------8--8--8----------8--8---------8----8--------8----8----------------------
B-----11-13^---------11-13^--------11-13^---------11-13^--------11-13^--11^--X---10^-
G--------------------------------------------------------------------------------10^-
D------------------------------------------------------------------------------------
A------------------------------------------------------------------------------------
E------------------------------------------------------------------------------------

E------------------------------------------------------------------------------------
B-----------------------------------------------------------------------10--------13-
G-------------------------------------12~~~~-----------------------------------------
D----------12-----10-----------------------------------------------------------------
A----------------------12------------------------------------------------------------
E------------------------------------------------------------------------------------

E----------10--10--10--13-P10-----------10--12-P10-----10----------------------------
B--15^------------------------13-10-H13------------13------13-P10-13-P10-----13-P10--
G-------------------------------------------------------------------------12---------
D------------------------------------------------------------------------------------
A------------------------------------------------------------------------------------
E------------------------------------------------------------------------------------

E------------------------------------------------------------------------------------
B----------------12--13^---------------12^--P10--------------------------------------
G--10---------------------------------------------12---------------\-------17-----19^
D--------12--------------------------------------------------------------------------
A------------------------------------------------------------------------------------
E------------------------------------------------------------------------------------

E------------------------------------------------------------------------------------
B--15--18------15--18------15--18------15---18------15--H18--P15------15-H18-P15-----
G--------17-19^------17-19^------17-19^-------17-19^------------17-19^----------17-19
D------------------------------------------------------------------------------------
A------------------------------------------------------------------------------------
E------------------------------------------------------------------------------------

E------------------------------------------------------------------------------------
B15-H18-P15----15-H18-P15-----15-H18-P15-----15-H18-P15-----15-H18-P15-----15-H18-P15
G----------17-19^---------17-19^---------17-19^---------17-19^---------17-19^--------
D------------------------------------------------------------------------------------
A------------------------------------------------------------------------------------
E------------------------------------------------------------------------------------

E-------------------17--P15-------------------------------17-P15---------------------
B-18-20^--18-20^------------------18---15----18----20^--------------18--15---18--20^~
G------------------------------------------------------------------------------------
D------------------------------------------------------------------------------------
A------------------------------------------------------------------------------------
E------------------------------------------------------------------------------------

E--20------------22^----20-22^----20^------------------------------------------------
B------------------------------------------18----------------------------------------
G----------------------------------------------------19~~~~~~~~----------------------
D------------------------------------------------------------------------------------
A------------------------------------------------------------------------------------
E------------------------------------------------------------------------------------

OptimusPrime

Toegevoegd door OptimusPrime op do 14 aug, 2003 5:26 pm

Auteur: ?
Componist: ?
Uitgever: ?
Taal: Engels

Reacties

CommonCrawl [Bot]

Volg Muzikum