Iron Maiden

Iron Maiden
Hallowed Be Thy Name Ver 2 (Bass tab)

Artist: Iron Maiden
Song Title: Allowed Be Thy Name
Album: A Real Live/Dead One
Tabbed by: MaggotsArmyWM - maggots_army@hotmail.com - www.maggotsarmy.tk

G|-----------------------------------------------------------------------------|
D|-----------------------------------------------------------------------------|
A|-----------------------------------------------------------------------------|
E|-0-----0------0------0-------0------0------0------0------0-----0-----0-----0-|

G|-------------------------------------------------------------|
D|-------------------------------------------------------------|
A|--3----5-----/7---------------3-----5-----/7-----------------|
E|-------------------0-----0--------------------0------0-------|

G|-------------------|--------------------------------------------------------|
D|-------5--4--2--0--|--------------------------------------------------------|
A|-3--5--------------|-7--7-7--7--7-7--7-7-7-7-7-7--3--3-3--3--3-3--3-3-3-3-3-|
E|-------------------|--------------------------------------------------------|

G|--------------------------------------------------------|--------------------|
D|-----------------------------------------------5-4-2-0--|--------------------|
A|-3--5--5-5--5--5-5--5-5-5-5-5-5--7-0-3---0-3-5----------|--7--7-7--7--7-7----|
E|--------------------------------------------------------|--------------------|

G|-----------------------------------------------------------------------------|
D|-----------------------------------------------------------------------------|
A|-7-7-7-7-7-7--3--3-3--3--3-3--3-3-3-3-3-3--5--5-5--5--5-5--5-5-5-5-5-5--10-9-|
E|-----------------------------------------------------------------------------|

G|------------|-----------------------------------------------------|----------|
D|------------|-------------9--9--------------9-------------9-------|----------|
A|-7--10-9-7--|---7--7-9-10-------10-9-7-9-10---10-9-7-9-10---10-9--|-7-7-7-7-7|
E|------------|-----------------------------------------------------|----------|

G|-----------------------------------------------------------------------------|
D|-----------------------------------------------------------------------------|
A|-7-7--7-7-7-7-7--7-7--7-7-7-7-7--7-7--7--7-7--7--5--3-3-3-3-3--3-3--3-3-3-3-3|
E|-----------------------------------------------------------------------------|

G|------------------------------------|----------------------------------------|
D|------------------------------------|----------------------------------------|
A|-3-3--3-3-3-3-3--3-3--3--3-3--3--5--|--7--7-7--7--7-7--7-7-7-7-7-7--3--3-3--3|
E|------------------------------------|----------------------------------------|

G|----------------------------------------------------------------------------|
D|----------------------------------------------------------------------------|
A|-3-3--3-3-3-3-3-3--5--5-5--5--5-5--5-5-5-5-5-5--7--7-7-7-7--10-9-7--10-9-7--|
E|----------------------------------------------------------------------------|

G|----------------------------------------------------------------------------|
D|----------------------------------------------------------------------------|
A|--7-7-7-7-7--7-7--7-7-7-7-7--7-7--7-7-7-7-7--7-7--7--7-7--7--5--3-3-3-3-3--3|
E|----------------------------------------------------------------------------|

G|-----------------------------------------------|-----------------------------|
D|-----------------------------------------------|-----------------------------|
A|-3-3-3-3-3--3-3--3-3-3-3-3--3-3--3--3-3--3--5--|-7---0-7---0-3---0-7---------|
E|-----------------------------------------------|-----------------------------|

G|------------4------------------|--------------------------------------------|
D|--2-4-5-4-5---5-4-5-4-2-0------|--------------------------------------------|
A|--------------------------3-5--|--7--7-7--7-7--7-7-7-7-7-7--7--7-7--7-7--10-|
E|-------------------------------|--------------------------------------------|

G|-------------------------------------------------------------------|---------|
D|-------------------------------------------------------------------|---------|
A|-9-7--3-2-0--5--5-5--5-5--5-5-5-5-5-5--5--5-5--5-5--10-9-7--3-2-0--|--7-7--7-|
E|-------------------------------------------------------------------|---------|

G|------------------------------------|----------------------------------------|
D|------------------------------------|----------------------------------------|
A|-7--7-7--7-7-7-7-7-7--7-7--7-7--7-7-|--0-7---0-5---0-7---0-5--0-7-7--7-7-7-7-|
E|------------------------------------|----------------------------------------|

G|-----------------------------------------------------|-----------------------|
D|-----------------------------------------------------|-----------------------|
A|-7-7-7-7-7-7-7--7-7--7-7--7-7-7-7-7-7-7-7-7-7-7--7---|--7--7-7--7-7--7-7-7-7-|
E|-----------------------------------------------------|-----------------------|

G|-----------------------------------------------------------------------------|
D|-----------------------------------------------------------------------------|
A|-7-7--7-7--3--3-3--3-3--3-3-3-3-3-3--5--5-5--5-5--5-5-5-5-5-5--7--7-7--7-7---|
E|-----------------------------------------------------------------------------|

G|------------------------|----------------------------------------------------|
D|------------------------|----------------------------------------------------|
A|-10-9-7-10-10-9-7-10----|--7--7-7--7-7--7-7-7-7-7-7--7-7--3--3-3--3-3--3-3-3-|
E|------------------------|----------------------------------------------------|

G|--------------------------------------------------------------------|--------|
D|-----------------------------------------------------------5-4-2-0--|--------|
A|-3-3-3--5--5-5--5-5--5-5-5-5-5-5--7--7-7--7-7--7-0-3-0-3-5----------|-7--7-7-|
E|--------------------------------------------------------------------|--------|

G|-----------------------------------------------------------------------------|
D|-----------------------------------------------------------------------------|
A|-7-7--7-7-7-7-7-7--3--3-3--3-3--3-3-3-3-3-3--5--5-5--5-5--5-5-5-5-5-5--7--7-7|
E|-----------------------------------------------------------------------------|

G|-----------------------------------------------------------------------------|
D|-----------------------------------------------------------------------------|
A|-7-7--10-9-7-10-9-7----7--7-7--7-7--7-7-7-7-7-7--3--3-3--3-3--3-3-3-3-3-3--5-|
E|-----------------------------------------------------------------------------|

G|-----------------------------------------------------------------------------|
D|-----------------------------------------------------------------------------|
A|-5-5--5-5--5-5-5-5-5-5--7--7-7--7-7--7-7-7---0-7------0-5--------0-3---------|
E|-----------------------------------------------------------------------------|

G|-----------------------------------------------------------------------------|
D|-----------------------------------------------------------------------------|
A|-0-5-------0-7---7-7-7-7-7-7-7-7-7-7-7-7-7-7-7-7-7-7-7-7-7-7-7-7-7-7-7-7-7-7-|
E|-----------------------------------------------------------------------------|

G|--------------------------------------------------------|
D|--------------------------------------------------------|
A|-7-7-7-7-7-7-7-7--------------7-7-7-7---------7-7-7-7\--|
E|--------------------------------------------------------|

OptimusPrime

Toegevoegd door OptimusPrime op do 14 aug, 2003 5:26 pm

Auteur: ?
Componist: ?
Uitgever: ?
Taal: Engels

Reacties

CommonCrawl [Bot]

Volg Muzikum