Iron Maiden

Iron Maiden
Fear Of The Dark Ver 4 (Bass tab)

Song : Fear Of The Dark
Artist : Iron Maiden
Tabbed By : apacherosepeacock

STANDARD TUNING (E A D G)

Intro Part A (Version 1):

||-7-----5-----7-----5-----------12-----------10-----12--|----7---7---7---7--||
||-7-----5-----7-----5-----7-----10-----7------8-----10--|-------------------||
||-5-----3-----5-----3-----7-----10-----7------8-----10--|--5---5---5---5----||
||-------------------------5------------5----------------|-------------------||

Intro Part A (Version 2):

||-7--------------------------------------5------------------------------------
||-7--------------------------------------5-----------------2-2----------------
||-5--0-0--5-5--7-7--8-8--7-7--5-5--7-7---3-------3-3--5-5-------5-5--3-3--5-5-
||-------------------------------------------3-3-------------------------------

--------7--------------------------------------5-----------------------------
-2------7--------------------------------------5-------------------2-2-------
----3---5--0-0--5-5--7-7--8-8--7-7--5-5--7-7---3-3--------3-3--5-5------5-5--
-----------------------------------------------------3-3---------------------

------------------2----------------------------------------5-----------------
-----------2------2----------------------------------------3-3-------3-3--5-5
-3-3--5-5-----3---0-0-------0-0--2-2--3-3--2-2--0-0--2-2---3----3-3----------
-----------------------0-0---------------------------------------------------

-2-2------------2------2---------------------------------------5-5--0-0--5-5-
------5-5--3-3-----3---2-----------------------------------------------------
-----------------------0-0-------0-0--2-2--3-3--2-2--0-0--2-2----------------
----------------------------0-0----------------------------------------------
Ritard.
-7-7--9-9--7-7--5-5--9---5---|----7---7---7---7--||
-----------------------------|-------------------||
-----------------------------|--5---5---5---5----||
-----------------------------|-------------------||

Intro Part B:

---3---3---3---3----5---5---5---5-----3---3----5---5----7---7---7---7----3---
-----------------------------------------------------------------------------
-1---1---1---1----3---3---3---3-----1---1----3---3----5---5---5---5----1-----
-----------------------------------------------------------------------------

---3---3---3-----5---5---5---5---5---5---5---5---|----7---7---7---7----3---3-
-------------------------------------------------|---------------------------
-1---1---1-----3---3---3---3---3---3---3---3-----|--5---5---5---5----1---1---
-------------------------------------------------|---------------------------
Vocals enter

--3---3----5---5---5---5----3---3---5---5-----7---7---7---7----3---3---3---3-
-----------------------------------------------------------------------------
1---1----3---3---3---3----1---1---3---3-----5---5---5---5----1---1---1---1---
-----------------------------------------------------------------------------

---5---5---5---5----3---3---5---5-----7---7---7---7-----3---3---3---3----5---
-----------------------------------------------------------------------------
-3---3---3---3----1---1---3---3-----5---5---5---5-----1---1---1---1----3---3-
-----------------------------------------------------------------------------

-5---5---5-----5---5----7---7----7---7---7---7-----3---3---3---3------5---5--
-------------3---3----5---5--------------------------------------------------
---3---3-----------------------5---5---5---5-----1---1---1---1-----3----3----
-----------------------------------------------------------------------------
"a little strange"

--5---5---5---5---5---5-----3---3---3---3----5---5---5---5----7---7---7---7--
-----------------------------------------------------------------------------
3---3---3---3---3---3-----1---1---1---1----3---3---3---3----5---5---5---5----
-----------------------------------------------------------------------------

---5---5---5---5-----3---3---3---3------5---5---7---7-----7---7---7---7---7--
--------------------------------------3---3---5---5--------------------------
-3---3---3---3-----1---1---1---1------------------------5---5---5---5---5----
-----------------------------------------------------------------------------

---7---7---7----3---3---3---3-----5---5---5---5-----7---7---7---7----5---5---
-----------------------------------------------------------------------------
-5---5---5----1---1---1---1-----3---3---3---3-----5---5---5---5----3---3---3-
-----------------------------------------------------------------------------

-5---5-----3---3---3---3-----5---5---7---7-----7---7---7---7---7---7-------||
---------------------------3---3---5---5-----------------------------------||
---3-----1---1---1---1-----------------------5---5---5---5---5---5---5-----||
---------------------------------------------------------------------------||
End of intro

-----------------------------------------------------------------------------
-----------------------------------------------------------------------------
-/5--5-0---5-5-0--5-5-0--5-5--0-1-1----1-1----1-1-----1-1----3-3-----3-3-----
------------------------------------1------1------1--------1-----3--------3--
Increase Tempo + Volume

-----------------------------------------------------------------------------
-----------------------------------------------------------------------------
-3-3------3-3----5--5-0-0-5-5-7-7-8-8-10-10-8-8-7-5---5-0----5-5-0----5-5-0--
-----3---------3-------------------------------------------------------------

-----------------------------------------------------------------------------
-----------------------------------------------------------------------------
-5-5--0--1--1------1-1-------1-1------1-1-----3---3------3-3-----3-3-----3-3-
--------------1---------1--------1----------1-------3--------3-------3-------

-----------------------------------------7-----------------------------------
-----------------------------------------7-----------------------------------
---5--5-0-0-5-5-7-7-8-8-10-10-8-8-7-5----5---5-5--5-5-5-5--5-5-5-5--5-5-5-5--
-3---------------------------------------------------------------------------

-3-----------------------------------5-----------------------------------7---
-3-----------------------------------5-----------------------------------7---
-1---1-1--1-1-1-1--1-1-1-1--1-1-1-1--3---3-3--3-3-3-3--3-3-3-3--3-3-3-3--5---
-----------------------------------------------------------------------------

------------------------7--------------------------------------------3-------
------------------------7--------------------------------------------3-------
-5-5--5-5-5-5--5-5-5-5--5---5-5--5-5-5-5--5-5-5-5--5-5-5-5--5-5-5-5--1---1-1-
-----------------------------------------------------------------------------

----------------------------5-----------------------------------7------------
----------------------------5-----------------------------------7------------
-1-1-1-1--1-1-1-1--1-1-1-1--3---3-3--3-3-3-3--3-3-3-3--3-3-3-3--5---5-5--5-5-
-----------------------------------------------------------------------------

-------------------------3-----------------5-----------------7---------------
-------------------------3-----------------5-----------------7---------------
-5-5--5-5-5-5--5-5-5-5---1---1-1--1-1-1-1--3---3-3--3-3-3-3--5---5-5--5-5-5-5
-----------------------------------------------------------------------------
"Fear of the dark"

5-----------------3--------------------5-------7-------7-----------------3---
5-----------------3--------------------3-------5-------7-----------------3---
3---3-3--3-3-3-3--1---1-1--1-1-1-1---------------------5---5-5--5-5-5-5--1---
-----------------------------------------------------------------------------

---------------5------------------7-------------------5-----------------3----
---------------5------------------7-------------------5-----------------3----
-1-1--1-1-1-1--3---3-3--3-3-3-3---5---5-5--5-5-5-5----3---3-3--3-3-3-3--1----
-----------------------------------------------------------------------------

---5-----7-----7-------------------7-------------------3------------------5--
---3-----5-----7-------------------7-------------------3------------------5--
---------------5---5-5--5-5-5-5----5---5-5--5-5-5-5----1---1-1--1-1-1-1---3--
-----------------------------------------------------------------------------

-----------------7------5-----7------------------3------------------5--------
-----------------7------5-----7------------------3------------------5--------
-3-3--3-3-3-3----5------3-----5---5-5--5-5-5-5---1---1-1--1-1-1-1---3--3-3---
-----------------------------------------------------------------------------

------------------------------7------------------3------------------5--------
------------------------------7------------------3------------------5--------
-3-3-3-3--3-3-3-3--3-3-3-3----5---5-5--5-5-5-5---1---1-1--1-1-1-1---3---3-3--
-----------------------------------------------------------------------------

-----------5------7---7-------------------3-----------------5----------------
-----------3------5---7-------------------3-----------------5----------------
-3-3-3-3--------------5---5-5--5-5-5-5----1--1-1--1-1-1-1---3---3-3--3-3-3-3-
-----------------------------------------------------------------------------

---------------------3--------------5--------------7--------------5----------
---------------------3--------------5--------------7--------------5----------
--3-3-3-3--3-3-3-3---1--1-1-1--1-1--3--3-3-3--3-3--5--5-5-5--5-5--3--3-3-3--3
-----------------------------------------------------------------------------
Rit.

-----3--------------5------7---7------------------------------3--------------
-----3--------------3------5---7------------------------------3--------------
-3---1--1-1-1--1-1-------------5--5-5-5--5-5-5--5-5-5--5-5----1--1-1-1--1-1--
-----------------------------------------------------------------------------

5---------------7---------------5---------------3---------------5------7---7-
5---------------7---------------5---------------3---------------3------5---7-
3--3-3-3--3-3---5--5-5-5--5-5---3--3-3-3--3-3---1--1-1-1--1-1--------------5-
-----------------------------------------------------------------------------

-----------------------------------------------------------------------------
-----------------------------------------------------------------------------
-5-5-5--5-5-5--5-5-5-5---5-5-0--5-5-0--5-5-0---5-5---0--1---1----1-1----1-1--
--------------------------------------------------------------1------1------1
Faster

-----------------------------------------------------------------------------
-----------------------------------------------------------------------------
-1-1---3---3----3-3----3-3----3-3------5-5-0-0-5-5-7-7-8-8-10-10-8-8-7-5---5-
-----1-------3------3------3------3------------------------------------------

-----------------------------------------------------------------------------
-----------------------------------------------------------------------------
-0--5-5-0--5-5-0--5-5---0--1---1-----1-1----1-1----1-1------3---3----3-3-----
---------------------------------1-------1------1--------1--------3------3---

----------------------------------------------------7------------------------
----------------------------------------------------7------------------------
-3-3----3-3-----5-5-0-0-5-5-7-7-8-8-10-10-8-8-7-5---5--5-5-5---5-5-5---5-5-5-
-----3------3----------------------------------------------------------------
Rit.

---------3---------------------------------------------3----5----7-----------
---------3-------------------------------5-------------3----5----7-----------
-5-5-5---1--1-1-1--1-1-1--1-1-1--1-1-1---5-------------1----3----5--5-5-5--5-
-----------------------------------------3--3-3-3--3-3-----------------------

---------------------------------------------------3-------------------------
---------------------------------------------------3-------------------------
-5-5---5-5-5---5-5--5--5-5-5--5-5-5--5-5-5--5-5-5--1--1-1-1--1-1-1--1-1-1----
-----------------------------------------------------------------------------

----------------------3-----5----7-------------------------------------------
--------5-------------3-----5----7-------------------------------------------
-1-1-1--5-------------1-----3----5--5-5-5--5-5-5--5-5-5--5-5--5--5-5-5--5-5-5
--------3--3-3-3--3-3--------------------------------------------------------

----------------3----------------------------------------------------5-----7-
----------------3-------------------------------5--------------------5-----7-
-5-5-5--5-5-5---1--1-1-1--1-1-1--1-1-1--1-1-1---5--------------------3-----5-
------------------------------------------------3--3-3-3--3-3-3--3-3---------

-----------------------------------------------------------3-----------------
-----------------------------------------------------------3-----------------
-5-5-5--5-5-5--5-5-5--5-5--5--5-5-5--5-5-5--5-5-5--5-5-5---1--1-1-1--1-1-1--1
-----------------------------------------------------------------------------

-----------------------------------5-----7--------------------------||
--------------5--------------------5-----7--------------------.--.--||
-1-1--1-1-1---5--------------------3-----5--5-5-5--5-5-5--5-5-5--5--||
--------------3--3-3-3--3-3-3--3-3----------------------------------||


-7--------------------------7--------------------------3---------------5-----
-7-----------------------.--7-----------------------.--3---------------5-----
-5--5-5-5--5-5-5--5-5-5--5--5--5-5-5--5-5-5--5-5-5--5--1--1-1-1--1-1---3--3-3
-----------------------------------------------------------------------------

Guitar Solo:

---------7--------------------------7--------------------------7-------------
---------7-----------------------.--7-----------------------.--7-------------
-3--3-3--5--5-5-5--5-5-5--5-5-5--5--5--5-5-5--5-5-5--5-5-5--5--5--5-5-5--5-5-
-----------------------------------------------------------------------------

----------------3--------------5--------------7---------------------------11-
------------.---3--------------5--------------7-----------------------.---11-
--5--5-5-5--5---1--1-1-1--1-1--3--3-3-3--3-3--5--5-5-5--5-5-5--5-5-5--5----9-
-----------------------------------------------------------------------------

-------------------------11-----------------------------7---------------9----
----------------------.--11------------------------.----7---------------9----
-9-9-9--9-9-9--9-9-9--9---9---9-9-9--9-9-9--9-9-9--9----5--5-5-5--5-5---7--7-
-----------------------------------------------------------------------------

2nd Guitar solo :

------------11---------------------------11---------------------------11-----
------------11-----------------------.---11-----------------------.---11-----
-7-7--7-7----9--9-9-9--9-9-9--9-9-9--9----9--9-9-9--9-9-9--9-9-9--9----9--9-9
-----------------------------------------------------------------------------

----------------------7--------------9--------------11-----------------------
------------------.---7--------------9--------------11-----------------------
-9--9-9-9--9-9-9--9---5--5-5-5--5-5--7--7-7-7--7-7---9--9-9-9--9-9-9--9-9-9--
-----------------------------------------------------------------------------

-----11-------------------------||-7----------------------------7--------------
--.--11-----------------------.-||-7----------------------------7--------------
--9---9--9-9-9--9-9-9--9-9-9--9-||-5--5-5-5--5-5-5--5-5-5--5-5--5--5-5-5--5-5-5
--------------------------------||---------------------------------------------
End Solo

---------3-----------------------3-------------------------------------------
---------3-----------------------3-----------------------5-------------------
-5-5-5---1--1-1-1--1-1-1--1-1-1--1-1-1-1--1-1-1--1-1-1---5-------------------
---------------------------------------------------------3-3-3--3-3-3--3-3-3-

-3----------------------------7----------------------------------------------
-3----------------------------7----------------------------------------------
-1--1-1-1--1-1-1--1-1-1--1-1--5--5-5-5--5-5-5--5-5-5--5-5-5--5-5-5--5-5-5--5-
-----------------------------------------------------------------------------

------7----------------------------------------------------------3-----------
------7----------------------------------------------------------3-----------
-5-5--5-5-5-5--5-5-5--5-5-5--5-5-5--5-5-5--5-5-5--5-5-5--5-5-5---1--1-1-1--1-
-----------------------------------------------------------------------------
"Fear of the Dark"

---------------------------------------------------------------------------3-
-----------------------------------------------5---------------------------3-
-1-1--1-1-1--1-1-1--1-1-1--1-1-1--1-1-1--1-1---5---------------------------1-
-----------------------------------------------3--3-3-3--3-3-3--3-3-3--3-3---

---------------------------7-------------------------------------------------
---------------------------7-------------------------------------------------
-1-1-1--1-1-1--1-1-1--1-1--5--5-5-5--5-5-5--5-5-5--5-5-5--5-5-5--5-5-5--5-5-5
-----------------------------------------------------------------------------

-7----------------------------------------------------------3----------------
-7----------------------------------------------------------3----------------
-5--5-5-5--5-5-5--5-5-5--5-5-5--5-5-5--5-5-5--5-5-5--5-5-5--1--1-1-1--1-1-1--
-----------------------------------------------------------------------------

---------------------------------------------------------------------3-------
-----------------------------------------5---------------------------3-------
-1-1-1--1-1-1--1-1-1--1-1-1--1-1-1--1-1--5---------------------------1--1-1-1
-----------------------------------------3--3-3-3--3-3-3--3-3-3--3-3---------

--------------------7--------------------------------------------------------
--------------------7--------------------------------------------------------
-1-1-1--1-1-1--1-1--5--5-5-5--5-5-5--5-5-5--5-5-5--5-5-5--5-5-5--5-5-5---/5--
-----------------------------------------------------------------------------
Faster

-----------------------------------------------------------------------------
-----------------------------------------------------------------------------
-5-0---5-5-0--5-5-0--5-5--0-1-1----1-1----1-1-----1-1----3-3-----3-3------3-3
--------------------------------1------1------1--------1-----3--------3------

-----------------------------------------------------------------------------
-----------------------------------------------------------------------------
-----3-3----5--5-0-0-5-5-7-7-8-8-10-10-8-8-7-5---5-0----5-5-0----5-5-0--5-5--
3---------3------------------------------------------------------------------

-----------------------------------------------------------------------------
-----------------------------------------------------------------------------
--0--1--1------1-1-------1-1------1-1-----3---3------3-3-----3-3-----3-3-----
----------1---------1--------1----------1-------3--------3-------3--------3--

----------------------------------------7--------------3--------------5------
----------------------------------------7--------------3--------------5------
--5--5-0-0-5-5-7-7-8-8-10-10-8-8-7-5----5--5-5--5-5-5--1--1-1--1-1-1--3--3-3-
-----------------------------------------------------------------------------

--------3-----5-----7--------------3--------------5--------------------------
--------3-----5-----7--------------3--------------5--------------------------
-3-3-3--1--1--3--3--5--5-5--5-5-5--1--1-1--1-1-1--3--3-3--3-3-3--3-3-3--3-3-3
-----------------------------------------------------------------------------

--7-------------3--------------5-------------5----7----7--------------3------
--7-------------3--------------5-------------3-3--5-5--7--------------3------
--5-5-5--5-5-5--1--1-1--1-1-1--3--3-3--3-3-3-----------5--5-5--5-5-5--1--1-1-
-----------------------------------------------------------------------------

---------3--------------5--------------7---------------5--------------3------
---------3--------------5--------------7---------------5--------------3------
-1-1-1-1-1--1-1-1--1-1--3--3-3-3--3-3--5--5-5-5--5-5---3--3-3-3--3-3--1--1-1-
-----------------------------------------------------------------------------
Rit.

----------5----7----7----------------------------3--------------5------------
----------3-3--5-5--7----------------------------3--------------5------------
-1--1-1-------------5--5-5-5--5-5-5--5-5-5--5-5--1--1-1-1--1-1--3--3-3-3--3-3
-----------------------------------------------------------------------------

--7------------5------------------3--------------5----7----7-----------------
--7------------5------------------3--------------3-3--5-5--7-----------------
--5--5-5-5--5--5--3--3-3-3--3-3---1--1-1-1--1-1------------5--5-5-5--5-5-5--5
-----------------------------------------------------------------------------

-----------3--------------5--------------7--------------5--------------3-----
-----------3--------------5--------------7--------------5--------------3-----
-5-5--5-5--1--1-1-1--1-1--3--3-3-3--3-3--5--5-5-5--5-5--3--3-3-3--3-3--1--3-3
-----------------------------------------------------------------------------

---------5----7----7----------------------------3--------------5-------------
---------3-3--5-5--7----------------------------3--------------5-------------
-3--3-3------------5--5-5-5--5-5-5--5-5-5--5-5--1--1-1-1--1-1--3--3-3-3--3-3-
-----------------------------------------------------------------------------

-7--------------5--------------3-------------5----7----7-||
-7--------------5--------------3-------------3-3--5-5--7-||
-5--5-5-5--5-5--3--3-3-3--3-3--1--1-1-1--1-1-----------5-||
---------------------------------------------------------||
Rit.

Outro (Decrease Tempo):

||---7---7---7---7----3---3---3---3-----5---5---5---5-----3---3-----5---5-----7
||-----------------------------------------------------------------------------
||-5---5---5---5----1---1---1---1-----3---3---3---3-----1---1-----3---3-----5--
||-----------------------------------------------------------------------------


---7---7---7-----3---3---3---3-----5---5---5---5---5---5---5---5------7---7--
-----------------------------------------------------------------------------
-5---5---5-----1---1---1---1-----3---3---3---3---3---3---3---3------5---5----
-----------------------------------------------------------------------------

---7---7----3---3---3---3-----5---5---5---5------5---5----7---7---7---7----||
-----------------------------------------------3---3----5---5--------------||
-5---5----1---1---1---1-----3---3---3---3------------------------5---5---5-||
---------------------------------------------------------------------------||
Rit. Let last note ring on

OptimusPrime

Toegevoegd door OptimusPrime op do 14 aug, 2003 5:26 pm

Auteur: ?
Componist: ?
Uitgever: ?
Taal: Engels

Reacties

CommonCrawl [Bot]

Volg Muzikum