Stereophonics

Stereophonics
The Old Laughing Lady (Guitar tab)

Date: Sun, 7 May 2000 09:41:51 -0400
From: AAuuddee@aol.com
Subject: s/stereophonics/the_old_laughing_lady.tab

This is a really nice song by Neil Young, but here is the stereophonics
version that is quite good....
Bye
AUDE

THE OLD LAUGHING LADY
PERFORMED BY STEREOPHONICS
WRITTEN BY NEIL YOUNG
FROM I WOULDN'T BELIEVE YOUR RADIO B-SIDE (1999)
------------------------------------------------

Tabbed by AAuuddee@aol.com


INTRO:
G6
---------------------------------------------------------
-------3---3---3-----------------3---3---3---------------
--0----0---0---0--0------0--0----0---0---0--0------0--0--
--0----0---0---0--0-h-2--2--0----0---0---0--0-h-2--2--0--
--2----2---2---2-----------------2---2---2---------------
-----3---3---3-----------------3---3---3-----------------

Harmonica
G6
----------------------------
----3---3---3---------------
----0---0---0--0------0--0--
----0---0---0--0-h-2--2--0--
----2---2---2---------------
--3---3---3-----------------

C
----------------------
----1---1---1---1--1--
----0---0---0---0--0--
----2---2---2---2--2--
--3---3---3---3-------
----------------------

G6
------------------------------------------------------
----3---3---3-----------------3---3---3---------------
----0---0---0--0------0--0----0---0---0--0------0--0--
----0---0---0--0-h-2--2--0----0---0---0--0-h-2--2--0--
----2---2---2-----------------2---2---2---------------
--3---3---3-----------------3---3---3-----------------

VERSE1:
G6
----------------------------
----3---3---3---------------
----0---0---0--0------0--0--
----0---0---0--0-h-2--2--0--
----2---2---2---------------
--3---3---3-----------------

C
----------------------
----1---1---1---1--1--
----0---0---0---0--0--
----2---2---2---2--2--
--3---3---3---3-------
----------------------

G6
----------------------------
----3---3---3---------------
----0---0---0--0------0--0--
----0---0---0--0-h-2--2--0--
----2---2---2---------------
--3---3---3-----------------

G6
-------------------------------------------
----3---3---3---3--3-----3---3---3---3--3--
----0---0---0---0--0-----0---0---0---0--0--
----0---0---0---0--0-----0---0---0---0--0--
----2---2---2---2--2-----2---2---2---2--2--
--3---3---3---3--------3---3---3---3-------

C
----------------------
----1---1---1---1--1--
----0---0---0---0--0--
----2---2---2---2--2--
--3---3---3---3-------
----------------------

G6
------------------------------------------------------
----3---3---3-----------------3---3---3---------------
----0---0---0--0------0--0----0---0---0--0------0--0--
----0---0---0--0-h-2--2--0----0---0---0--0-h-2--2--0--
----2---2---2-----------------2---2---2---------------
--3---3---3-----------------3---3---3-----------------

C
--------------------------------------
----1---1---1---1---1---1---1---1--1--
----0---0---0---0---0---0---0---0--0--
----2---2---2---2---2---2---2---2--2--
--3---3---3---3---3---3---3---3-------
--------------------------------------

G6
------------------------------------------------------
----3---3---3-----------------3---3---3---------------
----0---0---0--0------0--0----0---0---0--0------0--0--
----0---0---0--0-h-2--2--0----0---0---0--0-h-2--2--0--
----2---2---2-----------------2---2---2---------------
--3---3---3-----------------3---3---3-----------------

D
----------------------
----3---3---3---3--3--
----2---2---2---2--2--
--0---0---0---0-------
----------------------
----------------------

C
----------------------
----1---1---1---1--1--
----0---0---0---0--0--
----2---2---2---2--2--
--3---3---3---3-------
----------------------

G6
------------------------------------------------------
----3---3---3-----------------3---3---3---------------
----0---0---0--0------0--0----0---0---0--0------0--0--
----0---0---0--0-h-2--2--0----0---0---0--0-h-2--2--0--
----2---2---2-----------------2---2---2---------------
--3---3---3-----------------3---3---3-----------------

Harmonica
G6
----------------------------
----3---3---3---------------
----0---0---0--0------0--0--
----0---0---0--0-h-2--2--0--
----2---2---2---------------
--3---3---3-----------------

C
----------------------
----1---1-------------
----0---0-------------
----2---2----2--0--0--
--3---3---3--3--2--0--
----------------------

G6
------------------------------------------------------
----3---3---3-----------------3---3---3---------------
----0---0---0--0------0--0----0---0---0--0------0--0--
----0---0---0--0-h-2--2--0----0---0---0--0-h-2--2--0--
----2---2---2-----------------2---2---2---------------
--3---3---3-----------------3---3---3-----------------

VERSE2:
G6
----------------------------
----3---3---3---------------
----0---0---0--0------0--0--
----0---0---0--0-h-2--2--0--
----2---2---2---------------
--3---3---3-----------------

C
----------------------
----1---1---1---1--1--
----0---0---0---0--0--
----2---2---2---2--2--
--3---3---3---3-------
----------------------

G6
------------------------------------------------------
----3---3---3-----------------3---3---3---------------
----0---0---0--0------0--0----0---0---0--0------0--0--
----0---0---0--0-h-2--2--0----0---0---0--0-h-2--2--0--
----2---2---2-----------------2---2---2---------------
--3---3---3-----------------3---3---3-----------------

G6
----------------------------
----3---3---3---------------
----0---0---0--0------0--0--
----0---0---0--0-h-2--2--0--
----2---2---2---------------
--3---3---3-----------------

C
----------------------
----1---1---1---1--1--
----0---0---0---0--0--
----2---2---2---2--2--
--3---3---3---3-------
----------------------

G6
------------------------------------------------------
----3---3---3-----------------3---3---3---------------
----0---0---0--0------0--0----0---0---0--0------0--0--
----0---0---0--0-h-2--2--0----0---0---0--0-h-2--2--0--
----2---2---2-----------------2---2---2---------------
--3---3---3-----------------3---3---3-----------------

C
--------------------------------------
----1---1---1---1---1---1---1---1--1--
----0---0---0---0---0---0---0---0--0--
----2---2---2---2---2---2---2---2--2--
--3---3---3---3---3---3---3---3-------
--------------------------------------

G6
------------------------------------------------------
----3---3---3-----------------3---3---3---------------
----0---0---0--0------0--0----0---0---0--0------0--0--
----0---0---0--0-h-2--2--0----0---0---0--0-h-2--2--0--
----2---2---2-----------------2---2---2---------------
--3---3---3-----------------3---3---3-----------------

D
----------------------
----3---3---3---3--3--
----2---2---2---2--2--
--0---0---0---0-------
----------------------
----------------------

C
----------------------
----1---1---1---1--1--
----0---0---0---0--0--
----2---2---2---2--2--
--3---3---3---3-------
----------------------

G6
------------------------------------------------------
----3---3---3-----------------3---3---3---------------
----0---0---0--0------0--0----0---0---0--0------0--0--
----0---0---0--0-h-2--2--0----0---0---0--0-h-2--2--0--
----2---2---2-----------------2---2---2---------------
--3---3---3-----------------3---3---3-----------------

Harmonica
G6
----------------------------
----3---3---3---------------
----0---0---0--0------0--0--
----0---0---0--0-h-2--2--0--
----2---2---2---------------
--3---3---3-----------------

C
----------------------
----1---1---1---1--1--
----0---0---0---0--0--
----2---2---2---2--2--
--3---3---3---3-------
----------------------

G6
------------------------------------------------------
----3---3---3-----------------3---3---3---------------
----0---0---0--0------0--0----0---0---0--0------0--0--
----0---0---0--0-h-2--2--0----0---0---0--0-h-2--2--0--
----2---2---2-----------------2---2---2---------------
--3---3---3-----------------3---3---3-----------------

G6
-----------------------
----3---3---3---3--3---
----0---0---0---0--0---
----0---0---0---0--0---
----2---2---2---2--2---
--3---3---3---3--------

C
----------------------
----1---1---1---1--1--
----0---0---0---0--0--
----2---2---2---2--2--
--3---3---3---3-------
----------------------

G6
------------------------------------------------------
----3---3---3-----------------3---3---3---------------
----0---0---0--0------0--0----0---0---0--0------0--0--
----0---0---0--0-h-2--2--0----0---0---0--0-h-2--2--0--
----2---2---2-----------------2---2---2---------------
--3---3---3-----------------3---3---3-----------------

C
-----------------------------------------
----1---1---1---1--1---1---1---1---1--1--
----0---0---0---0--0---0---0---0---0--0--
----2---2---2---2--2---2---2---2---2--2--
--3---3---3---3------3---3---3---3-------
-----------------------------------------

G6
------------------------------------------------------
----3---3---3-----------------3---3---3---------------
----0---0---0--0------0--0----0---0---0--0------0--0--
----0---0---0--0-h-2--2--0----0---0---0--0-h-2--2--0--
----2---2---2-----------------2---2---2---------------
--3---3---3-----------------3---3---3-----------------

D
----------------------
----3---3---3---3--3--
----2---2---2---2--2--
--0---0---0---0-------
----------------------
----------------------

C
----------------------
----1---1-------------
----0---0-------------
----2---2----2--0--0--
--3---3---3--3--2--0--
----------------------

G6
------------------------------------------------------
----3---3---3-----------------3---3---3---------------
----0---0---0--0------0--0----0---0---0--0------0--0--
----0---0---0--0-h-2--2--0----0---0---0--0-h-2--2--0--
----2---2---2-----------------2---2---2---------------
--3---3---3-----------------3---3---3-----------------

VERSE3:
G6
----------------------------
----3---3---3---------------
----0---0---0--0------0--0--
----0---0---0--0-h-2--2--0--
----2---2---2---------------
--3---3---3-----------------

C
----------------------
----1---1---1---1--1--
----0---0---0---0--0--
----2---2---2---2--2--
--3---3---3---3-------
----------------------

G6
------------------------------------------------------
----3---3---3-----------------3---3---3---------------
----0---0---0--0------0--0----0---0---0--0------0--0--
----0---0---0--0-h-2--2--0----0---0---0--0-h-2--2--0--
----2---2---2-----------------2---2---2---------------
--3---3---3-----------------3---3---3-----------------

G6
-----------------------
----3---3---3---3--3---
----0---0---0---0--0---
----0---0---0---0--0---
----2---2---2---2--2---
--3---3---3---3--------

C
----------------------
----1---1---1---1--1--
----0---0---0---0--0--
----2---2---2---2--2--
--3---3---3---3-------
----------------------

G6
------------------------------------------------------
----3---3---3-----------------3---3---3---------------
----0---0---0--0------0--0----0---0---0--0------0--0--
----0---0---0--0-h-2--2--0----0---0---0--0-h-2--2--0--
----2---2---2-----------------2---2---2---------------
--3---3---3-----------------3---3---3-----------------

C
-----------------------------------------
----1---1---1---1--1---1---1---1---1--1--
----0---0---0---0--0---0---0---0---0--0--
----2---2---2---2--2---2---2---2---2--2--
--3---3---3---3------3---3---3---3-------
-----------------------------------------

G6
------------------------------------------------------
----3---3---3-----------------3---3---3---------------
----0---0---0--0------0--0----0---0---0--0------0--0--
----0---0---0--0-h-2--2--0----0---0---0--0-h-2--2--0--
----2---2---2-----------------2---2---2---------------
--3---3---3-----------------3---3---3-----------------

D
----------------------
----3---3---3---3--3--
----2---2---2---2--2--
--0---0---0---0-------
----------------------
----------------------

C
----------------------
----1---1-------------
----0---0-------------
----2---2----2--0--0--
--3---3---3--3--2--0--
----------------------

G6
------------------------------------------------------
----3---3---3-----------------3---3---3---------------
----0---0---0--0------0--0----0---0---0--0------0--0--
----0---0---0--0-h-2--2--0----0---0---0--0-h-2--2--0--
----2---2---2-----------------2---2---2---------------
--3---3---3-----------------3---3---3-----------------

Harmonica
G6
----------------------------
----3---3---3---------------
----0---0---0--0------0--0--
----0---0---0--0-h-2--2--0--
----2---2---2---------------
--3---3---3-----------------

C
----------------------
----1---1-------------
----0---0-------------
----2---2----2--0--0--
--3---3---3--3--2--0--
----------------------

G6
------------------------------------------------------
----3---3---3-----------------3---3---3---------------
----0---0---0--0------0--0----0---0---0--0------0--0--
----0---0---0--0-h-2--2--0----0---0---0--0-h-2--2--0--
----2---2---2-----------------2---2---2---------------
--3---3---3-----------------3---3---3-----------------

VERSE4:
G6
----------------------------
----3---3---3---------------
----0---0---0--0------0--0--
----0---0---0--0-h-2--2--0--
----2---2---2---------------
--3---3---3-----------------

C
----------------------
----1---1---1---1--1--
----0---0---0---0--0--
----2---2---2---2--2--
--3---3---3---3-------
----------------------

G6
------------------------------------------------------
----3---3---3-----------------3---3---3---------------
----0---0---0--0------0--0----0---0---0--0------0--0--
----0---0---0--0-h-2--2--0----0---0---0--0-h-2--2--0--
----2---2---2-----------------2---2---2---------------
--3---3---3-----------------3---3---3-----------------

G6
-------------------
----3---3---3---3--
----0---0---0---0--
----0---0---0---0--
----2---2---2---2--
--3---3---3---3----

C
----------------------
----1---1-------------
----0---0-------------
----2---2----2--0--0--
--3---3---3--3--2--0--
----------------------

G6
------------------------------------------------------
----3---3---3-----------------3---3---3---------------
----0---0---0--0------0--0----0---0---0--0------0--0--
----0---0---0--0-h-2--2--0----0---0---0--0-h-2--2--0--
----2---2---2-----------------2---2---2---------------
--3---3---3-----------------3---3---3-----------------

C
---------------------
----1---1---1---1----
----0---0---0---0----
----2---2---2---2----
--3---3---3---3------
---------------------

C
----------------------
----1---1-------------
----0---0-------------
----2---2----2--0--0--
--3---3---3--3--2--0--
----------------------

G6
------------------------------------------------------
----3---3---3-----------------3---3---3---------------
----0---0---0--0------0--0----0---0---0--0------0--0--
----0---0---0--0-h-2--2--0----0---0---0--0-h-2--2--0--
----2---2---2-----------------2---2---2---------------
--3---3---3-----------------3---3---3-----------------

D
----------------------
----3---3---3---3--3--
----2---2---2---2--2--
--0---0---0---0-------
----------------------
----------------------

C
----------------------
----1---1-------------
----0---0-------------
----2---2----2--0--0--
--3---3---3--3--2--0--
----------------------

G6
------------------------------------------------------
----3---3---3-----------------3---3---3---------------
----0---0---0--0------0--0----0---0---0--0------0--0--
----0---0---0--0-h-2--2--0----0---0---0--0-h-2--2--0--
----2---2---2-----------------2---2---2---------------
--3---3---3-----------------3---3---3-----------------

D
----------------------
----3---3---3---3--3--
----2---2---2---2--2--
--0---0---0---0-------
----------------------
----------------------

C
----------------------
----1---1-------------
----0---0-------------
----2---2----2--0--0--
--3---3---3--3--2--0--
----------------------

G6
----------------------------
----3---3---3---------------
----0---0---0--0------0--0--
----0---0---0--0-h-2--2--0--
----2---2---2---------------
--3---3---3-----------------

G6
----------------------
----3---3---3---3--3--
----0---0---0---0--0--
----0---0---0---0--0--
----2---2---2---2--2--
--3---3---3---3-------

Harmonica
D
----------------------
----3---3---3---3--3--
----2---2---2---2--2--
--0---0---0---0-------
----------------------
----------------------

C
----------------------
----1---1-------------
----0---0-------------
----2---2----2--0--0--
--3---3---3--3--2--0--
----------------------

G
-----
--3--
--0--
--0--strummed
--2--
--3--

ENJOY!!

OptimusPrime

Toegevoegd door OptimusPrime op di 18 dec, 2001 1:19 pm

Auteur: Neil Young
Componist: ?
Uitgever: V2 Music Ltd.
Uitgegeven in: 1999
Taal: Engels
Beschikbaar op: Reprises (2001)

Reacties

CommonCrawl [Bot]

Volg Muzikum