Danzig

Danzig
End Of Time Ver 2 (Guitar tab)

Danzig
End Of Time
Danzig(1988)

Intro/Pre Chorus
-------------------------------------------------------------------------------
--------------------------------------------3------3---------------------------
------4-----4-----------5------5------------------------------5----5-----------
----2-----2-----2-----2------2-----2-----2------2-----2-----2----2------2------
-2*-----2-----2----2-------2-----2----2-------2-----2----2-----2-----2---------
---------------------------------------------------------------------------0---
* - This note is only played the first time

Chorus
---------------------------------------
---------------------------------------
-----------------5--------7--------5---
-------2---------5--------7--------5---
-------2---------3--------5--------3---
-0000--0---0000------0000----0000------

Verse
----------------------------------------------------------------------
----------------------------------------------------------------------
----------------------------------------------------------------------
-2------5-----5---3-----7-----7---2------5-----5---3-----7---7---7----
-2------5-----5---3-----7-----7---2------5-----5---3-----7---7---7----
-0--0-0---0-0---0---0-0---0-0-----0--0-0---0-0---0---0-0---0---0------

Note: On the solo; repeat verse a lot.
The Outro is just C�s with a halfclean Em.
I know... the intro can be played in an easier way... but this is
the way I play it.... and it looks good..........................

/metal_up_your_ass@2die4.com

OptimusPrime

Toegevoegd door OptimusPrime op zo 30 okt, 2005 9:25 am

Auteur: ?
Componist: ?
Uitgever: ?
Taal: Engels

Reacties

CommonCrawl [Bot]

Volg Muzikum