Danzig

Danzig
Wicked Pussycat (Guitar tab)

B=Bend
H=Hammer-on
PH=Pinch Harmonic (take string with thumb and index finger and pluck to make a ring sond)

Intro/Chrous
B PH B PH
E----------------------------------------
B----------------------------------------
G----------------------------------------
D---2-----------------2------------2-----
A---2-------------7---2------------------
E---0----0h30---------0----0h30----------


Figure 1

E-----------------------------------------
B-----------------------------------------
G-----------------------------------------
D---2----------------2--------------------
A---2---------5-4----2---------5-4--------
E---0----0-----------0----0---------------



Intro X8
Verse X8 (bass only)
Fig1 X4
Chorus X8
Verse X8 (bass only)
Fig1 X4
Chorus X8
Verse X8 (bass only
Fig1 X4
Chorus X15

End

If you have any questions email me at evoltband@hotmail.com

Written and Performed by Danzig

OptimusPrime

Toegevoegd door OptimusPrime op do 14 aug, 2003 4:35 pm

Auteur: ?
Componist: ?
Uitgever: Evilive
Uitgegeven in: 2002
Taal: Engels
Beschikbaar op: 777 I Luciferi (2002)

Reacties

CommonCrawl [Bot]

Volg Muzikum