Danzig

Danzig
Until You Call On The Dark (Guitar tab)

� � Danzig-Until You Call On The Dark
Danzig 4p (Glenn Danzig) �

E-------------------------------------
B-------------------------------------
G-------------------------------------
D-------------------------------------
A-------8--7--------8-7---------------
E----5---------5------------8-7-6-----

E-------------------------------------
B-------------------------------------
G-------------------------------------
D-------------------------------------
A-------8-7---------8-7---------------
E----5--------5------------8-7-6------

etc...etc.....

E-------------------------------------
B-------------------------------------
G-------------------------------------
D---5---8-7--------------5--8-7-------
A---5---8-7--------------5--8-7-------
E---5------(pic�slide)---5-----------

(again and again then......)

E-------------------------------------
B-------------------------------------
G-------------------------------------
D-------------------------------------
A--------8-7-------8-7----10-9-8------
E---5---------5------------8-7-6-------

E-------------------------------------
B-------------------------------------
G-------------------------------------
D-------------------------------------
A---7-7---8-7---7-7----8-7--10-9-8----
E---5-5---------5-5----------8-7-6----
�����^�������� ^
����(pm) � (pm)
(Can Barely here, but on Live on the Black hand Side.....Todd Youth plays this way...On Danzig 4 Cd...You can Barely here This part)

Follow the Cd and get the the timing right...

E-mail me with Complaints..i know i
will get some...HkDanzig666@webtv.net Fangs!

"Until You Call On The Dark"-Danzig

OptimusPrime

Toegevoegd door OptimusPrime op do 14 aug, 2003 4:35 pm

Auteur: ?
Componist: ?
Uitgever: American Recordings
Uitgegeven in: 1994
Taal: Engels

Reacties

CommonCrawl [Bot]

Volg Muzikum