Danzig

Danzig
Twist Of Cain (Bass tab)

Twist of Cain
Danzig
Tabbed by: Danzig_Fiend@hotmail.com


Intro: (2x)
G -----------
D -----------
A –6-6-6-----
E -----------

After: (2x)
G -------------------------------------------------
D -------------------------------------------------
A -777777777777777777777777—--6-6-6----------------
E -------------------------------------------------

Verse: (3x) Then:
G ----------------------------------- | --------------------------
D ----------------------------------- | --------------------------
A ------------------------------6\--- | -----------------6-6-6----
E –555—8888—555—888------------------ | --555—8888----------------

Chorus: (2x)
G ----------------------------------------------------------------------
D ----------------------------------------------------------------------
A –7-0-6-0-3-00—7-0-6-0-3-00—77-0-6-0-3-000—6-6-6-----------------------
E ----------------------------------------------------------------------

Verse: (3x) Then:
G ----------------------------------- | --------------------------
D ----------------------------------- | --------------------------
A ------------------------------6\--- | -----------------6-6-6----
E –555—8888—555—888------------------ | --555—8888----------------

Chorus: (2x)
G ---------------------------------------------------------------------
D ---------------------------------------------------------------------
A –7-0-6-0-3-00—7-0-6-0-3-00—77-0-6-0-3-000—6-6-6----------------------
E ----------------------------------------------------------------------

Bridge: (4x)
G -------------------------------
D -------------------------------
A –0--3-------------3333-55------
E ---------5-3-5-4---------------


After: (2x)
G -------------------------------------------------
D -------------------------------------------------
A -777777777777777777777777—6-6-6------------------
E -------------------------------------------------

Verse: (3x) Then:
G ----------------------------------- | --------------------------
D ----------------------------------- | --------------------------
A ------------------------------6\--- | -----------------6-6-6----
E –555—8888—555—888------------------ | --555—8888----------------

Chorus: (2x)
G ---------------------------------------------------------------------
D ---------------------------------------------------------------------
A –7-0-6-0-3-00—7-0-6-0-3-00—77-0-6-0-3-000—6-6-6----------------------
E ----------------------------------------------------------------------

Bridge: (6x)
G -------------------------------
D -------------------------------
A –0--3-------------3333-55------
E ---------5-3-5-4---------------

Ending:
G ----------------------------
D ----------------------------
A -0---0---0---0---0----------
E ----------------------------

OptimusPrime

Toegevoegd door OptimusPrime op do 14 aug, 2003 4:35 pm

Auteur: ?
Componist: ?
Uitgever: Def American Recordings, Inc., Def USA Music, Inc.
Uitgegeven in: 1988
Taal: Engels

Reacties

CommonCrawl [Bot]

Volg Muzikum