Danzig

Danzig
Soul On Fire (Bass tab)

D A N Z I G
S O U L O N F I R E
DANZIG (1988)

Intro (piano arranged for bass):
-----------------------------------------------------
4----------------------------------------------------
--2-----2-----2----5----0----5----2---------0----5---
--------------------------------------0--------------

Verse
-------------------------------------------------------------
-------------------------------------------------------------
-2--2-2-2-2-2-2--5--5-5-5-5-5-5--0--0-0-0-0-0-0--5--5-5-5--5-
-------------------------------------------------------------

-------------------------------------------------------------
-------------------------------------------------------------
-2--2-2-2-2-2-2------------------0--0-0-0-0-0-0--5--5-5-5--5-
------------------0------------------------------------------

Chorus

-----------------------------------
-----------------------------------
-2-2--5-5--7-7----------------5----
---------------------3--3-3--------

Solo
-------------|-------------|-------------|-------------------
-----x15-----|--x8---------|-----x7------|-------------------
-------------|-------------|-------------|-------------5-----
--2--2-2--2--|--3--3-3--3--|--2--2-2--2--|----3--------------

Outro
------------|------------------------------------
------------|-----------------------------------
------------|----5----77777777777777777777\-----
-0-00000000-|-3---------------------------------

OptimusPrime

Toegevoegd door OptimusPrime op do 14 aug, 2003 4:35 pm

Auteur: ?
Componist: ?
Uitgever: Def American Recordings, Inc., Def USA Music, Inc.
Uitgegeven in: 1988
Taal: Engels

Reacties

CommonCrawl [Bot]

Volg Muzikum