Danzig

Danzig
She Rides (Bass tab)

D A N Z I G
She Rides (Danzig)
As Preformed On "DANZIG" From 1988

Intro
-------
-------
-------
---0---

Pre Chorus
--------||--------
--------||--------
---0----||--------
--------||----0---
x2 x2

Chorus
----------------------
----------------------
----------------------
-3-3-3-3--2-2-2-2--0--

Bridge Bridge Ending 1
--------------------------------------------------------------------------|--------------------------
--------------------------------------------------------------------------|--------------------------
--------------------------------------------------------------------------|-5-5-5-5-5-5-5-5-5-5-5-5--
-5-5-5-5-5-5-5-5-5-5-5-5-4-4-4-4-4-4-4-4-4-4-4-4-3-3-3-3-3-3-3-3-3-3-3-3--|--------------------------

Bridge Ending 2
-----
-----
-----
-1---

Notes:
Always silence the bass on the verse. The last times the bridge
ending 2 is played the F is strummed...........................

OptimusPrime

Toegevoegd door OptimusPrime op do 14 aug, 2003 4:35 pm

Auteur: Glenn Danzig
Componist: Glenn Danzig
Uitgever: Def American Recordings, Inc., Def USA Music, Inc.
Uitgegeven in: 1993
Taal: Engels

Reacties

CommonCrawl [Bot]

Volg Muzikum