Danzig

Danzig
Pain In The World Ver 2 (Guitar tab)

#
PAIN IN THE WORLD
by Danzig
from Danzig II- Lucifuge
tabbed by Tom Mallon

INTRO


/\/ /\/ /\/ /\/
E |-----------------------------------------------------------|
B |-----------------------------------------------------------|
G |-----------------------------------------------------------| Guitar I
D |-----------------------------------------------------------|
A |-------7---6--------------------------8--------------------|
E |--5------------6---3--/--5----8---7------------------------|

/\/
E |-----------------------------------------------------------|
B |-----------------------------------------------------------|
G |------9---8------------------------------------------------|
D |--7-----------8--------------------------------------------|
A |-----------------------------------------------------------|
E |-----------------------------------------------------------|

PRECHORUS
PM- - - - - - - - - - - - - - - - - -|
E |-----------------------------------------------------------|
B |-----------------------------------------------------------|
D |--------------9--9--9--8--8--8-----------------------------|
G |----7--7--7---9--9--9--8--8--8--8--8--8--------------------|
A |----7--7--7---7--7--7--6--6--6--8--8--8--------------------|
E |----5--5--5---------------------6--6--6--------------------|

CHORUS (PLAY INTRO)

OUTRO

E |-----------------------------------------------------------|
B |-----------------------------------------------------------|
D |-------------------5--------------------7-\-5--------------|
G |-------------------5--------------------7-\-5--------------|
A |-0-0-0-0----0-0-0--3---0-0-0-0---0-0-0--5-\-3--------------|
E |-----------------------------------------------------------|

Anyone who can figure out the solo, please post it.

OptimusPrime

Toegevoegd door OptimusPrime op do 14 aug, 2003 4:35 pm

Auteur: ?
Componist: ?
Uitgever: ?
Taal: Engels

Reacties

CommonCrawl [Bot]

Volg Muzikum