Danzig

Danzig
Mother Ver 6 (Guitar tab)

E-----|---------|
B-----|---------|
G-----|----2----|
D---4-|-0--2--4-|
A---2-|-2--0--2-|
E-----|-3-------|

-
E---------------------------- E-------------------------------
B---------------------------- B-------------------------------
G-----------2---------------- G-----2----------2-2--2-2-------
D---0-------2----2--4-4--4--- D---4-2-0-0--0-0-2-2--2-2---4-4-
A---2----2--0--0----2-2----2- A---2-0-2-2--2-2-0-0--0-0---2-2-
E---3--3--------------------- E-------3-3--3-3----------------

E-----------------------------
B-----------------------------
G------------------2----------
D-4-4--4----0------2---2------
A-2-2----2--2---2--0--0-------
E-----------3--3--------------

E----------------------------------------------------
B----------------------------------------------------
G-----2-----------2-2--2-2---------------------------
D---4-2--0-0--0-0-2-2--2-2---4-4-4-4-4-4-4-4-4-4-4-4-
A---2-0--2-2--2-2-0-0--0-0---2-2-2-2-2-2-2-2-2-2-2-2-
E--------3-3--3-3------------------------------------
PM . . . . . . . . . . . .

First Solo: Provided by MisfitsCentral.com
Full Full Full
E-------------------------------------------------------------------------
B---------------------------------------------------/|\--/|\--/|\---------
G----------------------------------------------------|----|----|----------
D-------------------------7--9h7-----7--9h7----------|----|----|----------
A-----------5--7--5--7h9----------9----------9--7----9h7--9h7--9----------
E--7--5--7----------------------------------------------------------------

Full Full
| | Full
E---------------------------7------------------10h7-----------------------
B--------------------7--10-----10----10-----7-----------------------------
G-------------------------------------------------------10----10----------
D--------9----------------------------------------------------------------
A-------------------------------------------------------------------------
E-------------------------------------------------------------------------

Full
E-----------------------
B-----------------------
G---------15h17--17-----
D---/16-----------------
A-----------------------
E-----------------------

E---17--------17----17--------------17--------------
B-------------------17b-------------17b-------17h15-
G-------17b-----------------------------------------
D---------------------------------------------------
A---------------------------------------------------
E---------------------------------------------------

Full
|
E----------------------------19--24------------------24------------------
B---17--15--------------/19----------------------------------------------
G-----------16-----------------------------------------------------------
D------------------------------------------------------------------------
A------------------------------------------------------------------------
E------------------------------------------------------------------------


NO 2ND SOLO


RHYTHM DURING 2ND SOLO
E--------------
B--------------
G------2-------
D--4-5-2-4-7-6-
A--2-5-0-2-5-4-
E----3---------

END
E------------------
B------------------
G------------------
D---7-7-7-6-6-44-4-
A---5-5-5-4-4-22-2-
E------------------

JUST PLACE THE PARTS WHERE THEY GO

OptimusPrime

Toegevoegd door OptimusPrime op do 14 aug, 2003 4:35 pm

Auteur: ?
Componist: ?
Uitgever: ?
Taal: Engels

Reacties

CommonCrawl [Bot]

Volg Muzikum